Cifra Club

Farewell

Kamelot

Cifra: Principal (violão e guitarra)
tom: B
Intro
eb|-----------------------------------|-----------------------------------|
Bb|-----------------------------------|-----------------------------------|
Gb|-----------------------------------|-----------------------------------|
Db|--4---------4---------4-----4------|--5---------5---------5-----5------|
Ab|--2-2-2-2-2-2-2-2-2-2-2-2-2-2-2-2--|--3-3-3-3-3-3-3-3-3-3-3-3-3-3-3-3--|
Eb|-----------------------------------|-----------------------------------|

eb|-----------------------------------|----------------------------------------|
Bb|-----------------------------------|----------------------------------------|
Gb|-----------------------------------|----------------------------------------|
Db|--6---------6---------6-----6------|--5---------5---------------------------|
Ab|--4-4-4-4-4-4-4-4-4-4-4-4-4-4-4-4--|--3-3-3-3-3-3-3-3-3-3--3--2--0-----(0)--|
Eb|-----------------------------------|--------------------------------3-------|

eb|-----------------------------------|-----------------------------------|
Bb|-----------------------------------|-----------------------------------|
Gb|-----------------------------------|-----------------------------------|
Db|--4---------4---------4-----4------|--5---------5---------5-----5------|
Ab|--2-2-2-2-2-2-2-2-2-2-2-2-2-2-2-2--|--3-3-3-3-3-3-3-3-3-3-3-3-3-3-3-3--|
Eb|-----------------------------------|-----------------------------------|

eb|-----------------------------------|-----------------------------------------------------|
Bb|-----------------------------------|------------------------------------/13-12-10----10--|
Gb|-----------------------------------|----------------------------------------------12-----|
Db|--6---------6---------6-----6------|--5---------5----------------------------------------|
Ab|--4-4-4-4-4-4-4-4-4-4-4-4-4-4-4-4--|--3-3-3-3-3-3-3-3-3-3--2--3--------------------------|
Eb|-----------------------------------|-----------------------------5--3-2------------------|


Verse 1
Acoustic guitar and orchesta bit (play while the lyrics down it last)
eb|--------12-------12-------10--------10--------12-------12-------10-------10--|
Bb|-----12-------12-------12--------12--------12-------12-------12-------12-----|
Gb|--12-------12-------12--------12--------12-------12-------12-------12--------| x? 
a lot of times)
Db|-----------------------------------------------------------------------------|
Ab|-----------------------------------------------------------------------------|
Eb|-----------------------------------------------------------------------------|
   Winter's close...and the mountain high
   I'll start my journey now
   On this planet we call Earth we belong
   I want to know

Electric guitar enters
eb|-------------|----------------------|------------------------|-------------------------------|
Bb|-------------|----------------------|------------------------|-------------------------------|
Gb|-------------|----------------------|------------------------|-------------12-14-12./16-12v--|
Db|--2-0--------|--9---------4---------|--5---------7-----------|--9----------------------------|
Ab|------3-2-0--|--7-777777--2-222222--|--3-333333--5--555555---|--7-777777---------------------|
Eb|-------------|----------------------|------------------------|-------------------------------|

eb|-----------|----------------------|------------------------|-----------------------------|
Bb|-----------|----------------------|------------------------|-----------------------------|
Gb|-----------|----------------------|------------------------|-----------------------------|
Db|-----------|--9---------4---------|--5---------7-----------|--9--------------------------|
Ab|--3./5./7--|--7-777777--2-222222--|--3-333333--5--555555---|--7-777777---10-12-10-10-9v--|
Eb|-----------|----------------------|------------------------|-----------------------------|

Why did God make me feel
There is no more to be answered
Maybe God cannot remedy
Our souls if he tried

eb|--------------------------------------------|
Bb|--------------------------------------------|
Gb|--------------------------------------------|
Db|--------------------------------------------|
Ab|--------------------------2Hv-5Hv-9Hv-10hv--|
Eb|--0..-2Hv-3Hv-2Hv---0...--------------------|
I seek peace of mind at least And to know I did my best


Pre-chorus
eb|-----------------------------------|
Bb|-----------------------------------|
Gb|-----------------------------------|
Db|--2--2-----------9-9........../14--|
Ab|--2--2-----------9-9........../14--|
Eb|--0--0-----------7-7........../12--|
    I will pray for those I have loved

Chorus
eb|-------------------------------------------------------12-10-8-7-(*)--|
Bb|----------------------------------------------------------------------|
Gb|--9---5--------7-------4----------9------5--------7-------------------|
Db|--9---5--------7-------4----------9------5--------7-------------------|
Ab|--7---3--------5-------2----------7------3--------5-------------------|
Eb|--0-------------------------------------------------------------------|
I  must take... farewell Carried...destiny Bound to obey

eb|-(12)-----------------------------------------------------------|
Bb|----------------------------------------------------------------|
Gb|--9---5--------7-------4----------------------------------------|
Db|--9---5--------7-------4----------------------------------------|
Ab|--7---3--------5-------2-----------3-------5------7--10----14---|
Eb|--0-------------------------------------------------------------|
I  must take... farewell Trails of discovery Lead me an ocean away


Pre verse

eb|-----------------------------------|-----------------------------------|
Bb|-----------------------------------|-----------------------------------|
Gb|-----------------------------------|-----------------------------------|
Db|--4---------4---------4-----4------|--5---------5---------5-----5------|
Ab|--2-2-2-2-2-2-2-2-2-2-2-2-2-2-2-2--|--3-3-3-3-3-3-3-3-3-3-3-3-3-3-3-3--|
Eb|-----------------------------------|-----------------------------------|

eb|-----------------------------------|----------------------------------------|
Bb|-----------------------------------|----------------------------------------|
Gb|-----------------------------------|----------------------------------------|
Db|--6---------6---------6-----6------|--5---------5---------------------------|
Ab|--4-4-4-4-4-4-4-4-4-4-4-4-4-4-4-4--|--3-3-3-3-3-3-3-3-3-3--3--2--0-----(0)--|
Eb|-----------------------------------|--------------------------------3-------|

eb|-----------------------------------|-----------------------------------|
Bb|-----------------------------------|-----------------------------------|
Gb|-----------------------------------|-----------------------------------|
Db|--4---------4---------4-----4------|--5---------5---------5-----5------|
Ab|--2-2-2-2-2-2-2-2-2-2-2-2-2-2-2-2--|--3-3-3-3-3-3-3-3-3-3-3-3-3-3-3-3--|
Eb|-----------------------------------|-----------------------------------|

eb|-----------------------------------|-----------------------------------------------------|
Bb|-----------------------------------|------------------------------------/13-12-10----10--|
Gb|-----------------------------------|----------------------------------------------12-----|
Db|--6---------6---------6-----6------|--5---------5----------------------------------------|
Ab|--4-4-4-4-4-4-4-4-4-4-4-4-4-4-4-4--|--3-3-3-3-3-3-3-3-3-3--2--3--------------------------|
Eb|-----------------------------------|-----------------------------5--3-2------------------|

Verse 2
(only bassguitar and drums)
No one holds the only truth in his hand
So who am I

Electric guitar enters
eb|-------------|----------------------|------------------------|---------------------------|-----------|
Bb|-------------|----------------------|------------------------|---------------------------|-----------|
Gb|-------------|----------------------|------------------------|---------------------------|-----------|
Db|--2-0--------|--9---------4---------|--5---------7-----------|--9----------7-------------|-----------|
Ab|------3-2-0--|--7-777777--2-222222--|--3-333333--5--555555---|--7-777777---5-555555------|--3./5./7--|
Eb|-------------|----------------------|------------------------|---------------------------|-----------|

Pre-chorus
eb|-----------------------------------|
Bb|-----------------------------------|
Gb|-----------------------------------|
Db|--2--2-----------9-9........../14--|
Ab|--2--2-----------9-9........../14--|
Eb|--0--0-----------7-7........../12--|
    Theres no time to waste I´m afraid


Chorus
eb|-------------------------------------------------------12-10-8-7-(*)--|
Bb|----------------------------------------------------------------------|
Gb|--9---5--------7-------4----------9------5--------7-------------------|
Db|--9---5--------7-------4----------9------5--------7-------------------|
Ab|--7---3--------5-------2----------7------3--------5-------------------|
Eb|--0-------------------------------------------------------------------|
I  must take... farewell Carried...destiny Bound to obey

eb|-(12)-----------------------------------------------------------|
Bb|----------------------------------------------------------------|
Gb|--9---5--------7-------4--------------------------9--12----16---|
Db|--9---5--------7-------4--------------------------x--xx----xx---|
Ab|--7---3--------5-------2-----------3-------5------7--10----14---|
Eb|--0-------------------------------------------------------------|
I  must take... farewell Trails of discovery Lead me an ocean away

Bridge

eb|------------------------------------------------------|
Bb|------------------------------------------------------|
Gb|------------------------------------------------------|
Db|--------------------------------------5--4--4-4-------|
Ab|--2--2--2-2---2--2--2-2---2--2--2-2---3--2--2-2-------|
Eb|--0--0--0-0---0--0--0-0---0--0--0-0--------------3Hv--|

eb|-----------------------------------------------|
Bb|-----------------------------------------------|
Gb|-----------------------------------------------|
Db|-------------4--------------5---------------4--|
Ab|--2-2---23---2--------------3---------------2--|
Eb|--0-0---00-------------------------------------|
When the tide is high I won't dwell or wait no longer

Solo
Solo
e||                     BAD NEWS!!!!!!                  ||
B||                                                     ||
G||               I GOT NO IDEA WHAT TO PLAY            ||
D||              IS TOO LONG TO FIGURE IT OUT           ||
A||                         SORRY                       ||
E||              I MIGHT SUBMIT IT LATER                ||

Pre-Chorus
eb|-----------------------------------|
Bb|-----------------------------------|
Gb|-----------------------------------|
Db|--2--2-----------9-9........../14--|
Ab|--2--2-----------9-9........../14--|
Eb|--0--0-----------7-9........../12--|
    Theres no time to waste I´m afraid


Chorus
eb|-------------------------------------------------------12-10-8-7-(*)--|
Bb|----------------------------------------------------------------------|
Gb|--9---5--------7-------4----------9------5--------7-------------------|
Db|--9---5--------7-------4----------9------5--------7-------------------|
Ab|--7---3--------5-------2----------7------3--------5-------------------|
Eb|--0-------------------------------------------------------------------|
I  must take... farewell Carried...destiny Bound to obey (I must take your farewell)

eb|-(12)------------------------------------------------|
Bb|-----------------------------------------------------|
Gb|--9---5--------7-------4-------------------7./14--9--|
Db|--9---5--------7-------4-----------5-----------------|
Ab|--7---3--------5-------2-----------3-----------------|
Eb|--0--------------------------------------------------|
I  must take... farewell Trails of discovery (oh oh oh)

eb|-------------------------------------------------------12-10-8-7-(*)--|
Bb|----------------------------------------------------------------------|
Gb|--9---5--------7-------4----------9------5--------7-------------------|
Db|--9---5--------7-------4----------9------5--------7-------------------|
Ab|--7---3--------5-------2----------7------3--------5-------------------|
Eb|--0-------------------------------------------------------------------|
I  must take... farewell Carried...destiny Bound to obey (Bound to obey)

eb|-(12)--------------------------------------------------------------------------|
Bb|-------------------------------------------------------------------------------|
Gb|--9---5--------7-------4-----------5-------7------9--12----5---7---5---7---9---|
Db|--9---5--------7-------4-----------5-------7------9--12----5---7---5---7---9---|
Ab|--7---3--------5-------2-----------3-------5------7--10----3---5---3---5---7---|
Eb|--0----------------------------------------------------------------------------|
I  must take... farewell Trails of discovery Lead me an ocean awaaaaaaaaaaaay

Outro
Acoustic guitar and orchesta bit
eb|--------12-------12-------10--------10--------12-------12-------10-------10--|
Bb|-----12-------12-------12--------12--------12-------12-------12-------12-----|
Gb|--12-------12-------12--------12--------12-------12-------12-------12--------| x? 
until the song end)
Db|-----------------------------------------------------------------------------|
Ab|-----------------------------------------------------------------------------|
Eb|-----------------------------------------------------------------------------|

Full lyrics

Farewell

Winter's close...and the mountain high
I'll start my journey now
On this planet we call Earth we belong
I want to know
Why did God make me feel
There is no more to be answered
Maybe God cannot remedy
Our souls if he tried
I seek peace of mind at least
And to know I did my best
I will pray for those I have loved

I must take your farewell
Carried by destiny
Bound to obey

I must take your farewell
Trails of discovery
Lead me an ocean away

No one holds the only truth in his hand
So who am I
To defy even God
In quest for a reason
There's no time to waste I'm afraid

I must take your farewell
Carried by destiny
Bound to obey

I must take your farewell
Trails of discovery
Lead me an ocean away
So far away

When the tide is high
I won't dwell or wait no longer
00:00 / 00:00
Outros vídeos desta música
Repetir
Outros vídeos desta música
Compositor não encontrado.
Colaboração e revisão:
  • Hellektra
2.352 exibições
    • ½ Tom
    • A
    • Bb
    • B
    • C
    • Db
    • D
    • Eb
    • E
    • F
    • F#
    • G
    • Ab
  • Adicionar à lista

    0 comentários

    Ver todos os comentários

    Entre para oCifra Club PRO

    Tenha acesso a benefícios exclusivos no App e no Site

    • Chega de anúncios

    • Prioridade de compra em lançamentos

    • Mais recursos no app do Afinador

    • Atendimento Prioritário

    • Descontos nos produtos Cifra Club

    • Ajude a produzir mais conteúdo

    00:00 / 00:00

    Cifra Club Pro

    Aproveite o Cifra Club com benefícios exclusivos e sem anúncios
    Cifra Club Pro
    Aproveite o Cifra Club com benefícios exclusivos e sem anúncios
    OK