Cifra Club

Forever

Kamelot

Cifra: Principal (violão e guitarra)
tom: E
Kamelot - Forever
Por: Willker Menezes da Rocha

Legendas:
~ - vibrato
h - hammer on
p - pull off
H.A. - harmônico artificial
/- slide p/ cima
p.m. - palm muted

INTRO
(0:01)
Guitarra 1
e|-----------6-7-7-6-6--------------------------|-----------6-7-7-6-6--------------------|
B|-----6-7-9-----------7----6-7-7-6-6-----------|-----6-7-9-----------7---6-7-7-6-6------|
G|-/8--------------------8------------6-------6-|-/8--------------------8-----------6----|
D|--------------------------------------8-6-8---|-------------------------------------8~-|
A|----------------------------------------------|----------------------------------------|
E|----------------------------------------------|----------------------------------------|
Guitarra 2
e|----------------------------------------------|----------------------------------------|
B|----------------------------------------------|----------------------------------------|
G|--8------6-------2-----2------6---------------|--8------6-------2-----2-----6-----XX8~-|
D|--8------6-------4-----4------6-------4-----3-|--8------6-------4-----4-----4-----XX8~-|
A|--6------4-------4-----4------4-------4-----3-|--6------4-------4-----4-----4-----XX6~-|
E|--------------------------------------2-----1-|----------------------------------------|

(0:17)
Guitarra 1                                        H.A.
e|------------------------6-7-6h7p6---------11h13-(14)-13p11----------|
B|----6-7-6h7p6-------7-9-----------96-7-------------------14-12-11--|
G|--6-----------8---8-------------------------------------------------|
D|--------------------------------------------------------------------|
A|--------------------------------------------------------------------|
E|--------------------------------------------------------------------|
Guitarra 2
e|--------------------------------------------------------------------|
B|--------------------------------------------------------------------|
G|--------XX4~---------------XX6~----------------XX3~~----------------|
D|--------XX4~---------------XX6~----------------XX3~~----------------|
A|--------XX2~---------------XX4~----------------XX1~~----------------|
E|--------------------------------------------------------------------|

(0:22)
Guitarra 1
e|----------6-7-7-6-6---11-13-14-14-13-13----11-|-----------------------------------------|
B|----6-7-9-----------7-------------------14----|-----------------------------------------|
G|-/8-------------------------------------------|-----------------------------------------|
D|----------------------------------------------|-----------------------------------------|
A|----------------------------------------------|-----------------------------------------|
E|----------------------------------------------|-----------------------------------------|
Guitarra 2
e|----------------------------------------------|-----------------------------------------|
B|----------------------------------------------|-----------------------------------------|
G|--------------------------6~------------------|-----------------------------------------|
D|--------------------------6~------------------|-----------------------------------------|
A|--66666444442222222222222-4~------------------|-666666666666666666666666666666666666666-|
E|----------------------------------------------|-----------------------------------------|
    |--------p.m.---------|                       |-----------------p.m.----------------|
(0:30)                                           (0:36)
Guitarra 1
e|----------------------------------------------|-----------------------------------------|
B|----------------------------------------------|-----------------------------------------|
G|----------------------------------------------|--15-16-15-13-13/15--11-13-10------------|
D|----------------------------------------------|--13-14-13-11-11/13--9--11-8--11--11/13--|
A|----------------------------------------------|--13-14-13-11-11/13--9--11-8--11--11/13--|
E|----------------------------------------------|-------------------------------9---9/11--|

Guitarra 2
e|----------------------------------------------|-----------------------------------------|
B|----------------------------------------------|-----------------------------------------|
G|----------------------------------------------|-----------------------------------------|
D|----------------------------------------------|-----------(palhetada mais rápida)-------|
A|--6666666666666666666666666666666666666666666-|--66666666666666666666666666666666666666-|
E|----------------------------------------------|-----------------------------------------|
    |-------------------p.m.------------------|    |----------------p.m.----------------|
Fim da Intro



Início do vocal
(0:41)                                       (0:52) 
 |------------------p.m.-------------------|
E|-----------------------------------------|----------------------------------------------|
B|-----------------------------------------|----------------------------------------------|
G|-8~--------------------------------------|----------------------------------------------|
D|-8~--(fading out...)---------------------|----------------------------------------------|
A|-6~--------------------------------------|--66666-6-6-6-----66666-6-6-6-----66666-6-6-6-|
E|-----------------------------------------|----------------------------------------------|
     "There's a pain within..."               "From the night we met..."


Pré-Refrão
(1:03)                                                        |-p.m.-|
E|-----------------------------------------|----------------------------------------------|
B|-----------------------------------------|----------------------------------------------|
G|--4~-----------------4/-6~---------63~--|-------------------444444----66-X-66-X-66-----|
D|--4~-----------------4/-6~---------63~--|-------------------444444----66-X-66-X-66-----|
A|--2~-----------------2/-4~---------41~--|-------------------222222----44-X-44-X-44-----|
E|-----------------------------------------|----------------------------------------------|
    "All too soon we were divided..."       "And life has just begun..."  

Refrão
(1:15)                                             |-------------p.m.--------------|   
e|----------------------------------------------|-----------------------------------------|
B|----------------------------------------------|-----------------------------------------|
G|--8------6-------2-----2------6---------------|-----------------------------------------|
D|--8------6-------4-----4------6-------4-----3-|-----------------------------------------|
A|--6------4-------4-----4------4-------4-----3-|--6666666444444222222222222224444444-----|
E|--------------------------------------2-----1-|-----------------------------------------|
    "Will you revive..."                           "Will you be there..."

(1:32)
e|----------------------------------------------|
B|----------------------------------------------|
G|--8~-------4~-------6~-------3~---------------|
D|--8~-------4~-------6~-------3~---------------|
A|--6~-------2~-------4~-------1~---------------|
E|----------------------------------------------|


Verso
(1:37)
   |----------------p.m.-------------------|      |----------------p.m.-----------------|
E|----------------------------------------------|------------------------------------------|
B|----------------------------------------------|------------------------------------------|
G|----------------------------------------------|------------------------------------------|
D|----------------------------------------------|------------------------------------------|
A|-66666-6-6-6----66666-6-6-6----66666-6-6-6----|-66666-6-6-6----66666-6-6-6---66666-6-6-6-|
E|----------------------------------------------|------------------------------------------|
  "I belong to you..."                             "Is the way things are..."

(1:49)
   |----------------p.m.---------------------|    |------------p.m.--------------|
E|----------------------------------------------|-------------------------------------------|
B|----------------------------------------------|-------------------------------------------|
G|----------------------------------------------|-----------------------------------66------|
D|----------------------------------------------|-----------------------------------66------|
A|-6666666666669999666666666666444466666666666--|-666666666666699999666666666666444-44------|
E|----------------------------------------------|-------------------------------------------|
  "Like the morning star..."


Pré-Refrão
(2:00)                                                        |-p.m.-|
e|-----------------------------------------|------------------------------------------------|
B|-----------------------------------------|------------------------------------------------|
G|--4~-----------------4/-6~---------63~--|--------------------4~-------6-X-6-X-6----------|
D|--4~-----------------4/-6~---------63~--|--------------------4~-------6-X-6-X-6----------|
A|--2~-----------------2/-4~---------41~--|--------------------2~-------4-X-4-X-4----------|
E|-----------------------------------------|------------------------------------------------|
    "All too soon we were divided..."       "Into darkness and light..."

Refrão
(2:11)                                             |-------------p.m.--------------|   
E|----------------------------------------------|-------------------------------------------|
B|----------------------------------------------|-------------------------------------------|
G|--8------6-------2-----2------6---------------|------------------------------------X8X88--|
D|--8------6-------4-----4------6-------4-----3-|------------------------------------X8X88--|
A|--6------4-------4-----4------4-------4-----3-|--66666664444442222222222224444444--X6X66--|
E|--------------------------------------2-----1-|-------------------------------------------|
    "Will you revive..."                           "Will you be there..."

Interlúdio
(2:29)
  |----p.m.------|         |------p.m.-------|    
E|----------------------------------------------|-------------------------------------------|
B|----------------------------------------------|-------------------------------------------|
G|------------------X8X88-----------------------|--8~---------------------------------------|
D|-8-8-8-8-8-8-8-8--X8X88-----------------------|--8~--(fading out)-------------------------|
A|-6-6-6-6-6-6-6-6--X6X66--6666666666666666666--|--6~---------------------------------------|
E|----------------------------------------------|-------------------------------------------|
                                                  "Save me, reverse how I'm thinking..." 

*Esse verso não tem guitarra, depois do fading espere até o solo...

(2:56)
E|----------------------------------------------|-------------------------------------------|
B|----------------------------------------------|-------------------------------------------|
G|--8~-----------------------------------8~-----|-------------------------------------------|
D|--8~-----6/8-6/8-6/8-6/8-6/8-6/8-6/8---8~-----|-----6/8-6/8-6/8-6/8-6/8-6/8-6/8-6/8-------|
A|--6~-----4/6-4/6-4/6-4/6-4/6-4/6-4/6---6~-----|-----4/6-4/6-4/6-4/6-4/6-4/6-4/6-4/6-------|
E|----------------------------------------------|-------------------------------------------|

Solo
(3:07)
Guitarra 1
e|------14-13-16-14-13---------13-16-14-13-------------11~--|
B|---12----------------14------------------16-14-12-11------|
G|------------------------15~-------------------------------|
D|----------------------------------------------------------|
A|----------------------------------------------------------|
E|----------------------------------------------------------|
Guitarra 2
e|----------------------------------------------------------|
B|----------------------------------------------------------|
G|----4~----------------------------------------------------|
D|----4~---------4~-------------3~-------------------8~-----|
A|----2~---------4~-------------3~-------------------8~-----|
E|---------------2~-------------1~-------------------6~-----|

(3:13)
Guitarra 1            H.A.                                   
e|--11------------------------------------------------------|
B|-----14-12-11---------------------------------------------|
G|--------------13-11-(13)~-11-10-11~--13-11-10-11-10---11~-|
D|----------------------------------------------------11----|
A|----------------------------------------------------------|
E|----------------------------------------------------------|
Guitarra 2
e|----------------------------------------------------------|
B|----------------------------------------------------------|
G|--4~~-----------------------------------------------------|
D|--4~~-------------------------------4~~-------------------|
A|--2~~-------------------------------4~~-------------------|
E|------------------------------------2~~-------------------|

(3:16)
Guitarra 1
   |-p.m.-|
e|----------------------------------------------------------|
B|----------------------10--11~-12~--9~---------------------|
G|----------10-11-12-13-----------------11~-10~-------------|
D|--9-11-13------------------------------------11~----------|
A|----------------------------------------------------------|
E|----------------------------------------------------------|
Guitarra 2
   |-dobrando em oitava-|
e|---------------------------------------------------------------|
B|---------------------------------------------------------------|
G|-------------------------15-16-15-13-13/15--11-13-10-----------|
D|----------------------7--13-14-13-11-11/13--9--11-8--11-11/13--|    
A|-----------8-9-10-11-----13-14-13-11-11/13--9--11-8--11-11/13--|
E|--7--9-11---------------------------------------------9--9/11--|
Fim do Solo


Pré-Refrão
(3:23)                                                        |-p.m.-|
E|-----------------------------------------|----------------------------------------------|
B|-----------------------------------------|----------------------------------------------|
G|--4~-----------------4/-6~---------63~--|-------------------444444----66-X-66-X-66-----|
D|--4~-----------------4/-6~---------63~--|-------------------444444----66-X-66-X-66-----|
A|--2~-----------------2/-4~---------41~--|-------------------222222----44-X-44-X-44-----|
E|-----------------------------------------|----------------------------------------------|
    "All too soon we were divided..."       "And life has just begun..."  

Refrão
(3:24)                                             |-------------p.m.--------------|   
e|----------------------------------------------|-----------------------------------------|
B|----------------------------------------------|-----------------------------------------|
G|--8------6-------2-----2------6---------------|-----------------------------------------|
D|--8------6-------4-----4------6-------4-----3-|-----------------------------------------|
A|--6------4-------4-----4------4-------4-----3-|--6666666444444222222222222224444444-----|
E|--------------------------------------2-----1-|-----------------------------------------|
    "Will you revive..."                           "Will you be there..."

e|----------------------------------------------|-----------------------------------------|
B|----------------------------------------------|-----------------------------------------|
G|----------------------------------------------|--15-16-15-13-13/15--15-16-13-13--18/19--|
D|----------------------------------------------|--13-14-13-11-11/13--13-14-11-11--16/18--|
A|--6666666444444222222222222224444444----------|--13-14-13-11-11/13--13-14-11-11--16/18--|
E|----------------------------------------------|-----------------------------------------|
   "Will you be there..."

         
00:00 / 00:00
Outros vídeos desta música
Repetir
Outros vídeos desta música
Composição de Roy Khantatat / Thomas Youngblood
Colaboração e revisão:
  • Willker Rocha
10.756 exibições
    • ½ Tom
    • A
    • Bb
    • B
    • C
    • Db
    • D
    • Eb
    • E
    • F
    • F#
    • G
    • Ab
  • Adicionar à lista

    0 comentários

    Ver todos os comentários

    Conseguiu tocar?

    2 Tocaram 0 Ainda não

    Grave um vídeo tocando Forever e nos envie!

    Entre para oCifra Club PRO

    Tenha acesso a benefícios exclusivos no App e no Site

    • Chega de anúncios

    • Prioridade de compra em lançamentos

    • Mais recursos no app do Afinador

    • Atendimento Prioritário

    • Descontos nos produtos Cifra Club

    • Ajude a produzir mais conteúdo

    00:00 / 00:00

    Cifra Club Pro

    Aproveite o Cifra Club com benefícios exclusivos e sem anúncios
    Cifra Club Pro
    Aproveite o Cifra Club com benefícios exclusivos e sem anúncios
    OK