Cifra Club

The Haunting (somewhere In Time)

Kamelot

Cifra: Principal (violão e guitarra)
Tom: G
| /  slide up
| \  slide down
| h  hammer-on
| p  pull-off
| v  vibrato
| *  harmonic
| x  Mute note
| ~  let ring
| b  bend
| T  tap

Intro (Some kind of flute arranged for guitar. Through the intro it sounds
like there's a guitar layer where he's raking the bottom 4 strings behind
the nut- the rhythm for that should be easy enough to figure out.)

|-19~---------17~-----------------12~---14~---15~-|
|-------17~---------15~-13~-12~-------------------|
|-------------------------------------------------|
|-------------------------------------------------|
|-------------------------------------------------|
|-------------------------------------------------|
Sounds much closer to the recording if you volume swell each note.

In the middle of that part, this starts fading in:
|----19----------------------20-------------------|
|-17-----(play 8 times)---17-----(play 8 times)---|
|-------------------------------------------------|
|-------------------------------------------------|
|-------------------------------------------------|
|-------------------------------------------------|


Verse 1 (there's lots of faint fills in here, so listen closely)
  Merely the... ...bel- ieve that...    ...you were her
|-------------------------------------------------------|
|-------------------------------------------------------|
|-------------------------------------------------------|
|-2---2---------------------5---5----5--5--------7---7--|
|-2---2---------------------3---3----3--3--------5---5--|
|-2---2-------------------------------------------------|


 Just like...         ...inn-er peace...
|---------------------------------------------------------|
|---------------------------------------------------------|
|------------7-5---4v~------------------------------------|
|--2---2---------7--------5--5----------7-7-7--7/9-9-9-9--|
|--2---2------------------3--3----------5-5-5--5/7-7-7-7--|
|--2---2--------------------------------------------------|

 Once I... ...could find,        just a trace....beloved     soul
|-------------------------------------------------------------------|
|----------------------------------------------------12h13p12h13v---|
|-------------------------------------------------------------------|
|--2--2------------------12v-12v---------5-5------------------------|
|--2--2----------------------------------3-3------------------------|
|--2--2-------------------------------------------------------------|

 Once I... a-a-all,        Then she smoth-ered              My beliefs
|-------------------------------------------------------------------------|
|-----------12v-12v~---------------------------12h13p12h13~-----------/15-|
|---------------------9-9v~-----------------------------------------------|
|--2--2--------------------------------2---2------------------------------|
|--2--2--------------------------------2---2------------------------------|
|--2--2--------------------------------2---2------------------------------|

Pre-chorus (One cold winter's...)
|-----|
|-----|
|-----|
|--2~-|
|--2~-|
|--2~-|

Chorus (Somewhere in time I will...)
|----------------------------------------------------------------------|
|----------------------------------------------------------------------|
|----------------------------------------------------------------------|
|-------2~---5~---0~---5~-4~-------------2~---5~---0~-----x-4p0-5p4p0--|
|-2-2-2-2~---5~---0~---5~-4~-------2-2-2-2~---5~---0~------------------|
|-2-2-2-2~---5~---0~---5~-4~-------2-2-2-2~---5~---0~------------------|
PM. . .                            . . .

|------------------------------------------------------------------------------------|
|--------------------------------8--7---------------------------------8--------------|
|--------------------------------x--x---------------------------------x--------------|
|-------2~--------5~--------0~---5--4--------2~--------5~--------0~---5--x-4p0-5p4p0-|
|-2-2-2-2~--5-5-5-5~--0-0-0-0~---------2-2-2-2~--5-5-5-5~--0-0-0-0~------------------|
|-2-2-2-2~--5-5-5-5~--0-0-0-0~---------2-2-2-2~--5-5-5-5~--0-0-0-0~------------------|
PM. . .     . . .     . . .            . . .     . . .     . . .

Pre-verse
|----------------------------------------------------|
|----------------------------------------------------|
|----------------------------------------------------|
|--222--------2-2--------222------------2------------|
|--222--------2-2--------222-3-22222222-2-3-3-333333-|
|--222--------2-2--------222---22222222-2------------|
PM ...                   ...   ........ .     ......

Verse 2
|-----------------------------------|
|-----------------------------------|
|-----------------------------------|
|-2-2----2-2----5-5----5-5-5-7-7-7--|
|-2-2----2-2----3-3----3-3-3-5-5-5--|
|-2-2----2-2------------------------| x4


Pre-chorus 2 (Leave, leave me for now and forever...)
|----------------------|
|----------------------|
|------5~--------7~----|
|-2~---5~---5~---7~----|
|-2~---3~---5~---5~----|
|-2~--------5~---------|


Chorus


Bridge (Follow me into the light...)
|------------------------------------------------------------------------------|
|------------------------------------------------------------------------------|
|--5~-------2~-------4~------------9-7-5~-------4~-------9--7~-6~--------------|
|--5~-------2~-------4~-------2~---9-7-5~-------4~-------9~-7~-6~--------------|
|--3~-------0~-------2~-------2~---7-5-3~-------2~-------7~-5~-4~-------3~--2~-|
|-----------------------------2~-----------------------------------------------|


Solo. This is what I got. Guaranteed not to be 100%, but I gave it a shot.
(The chorus is used as the rhythm)

  V sharp vibrato makes first note sound pinch harmonic-y :)
|---------------------------------------------------------------------------|
|-17v~----------------------------------------------------------------------|
|--------16--14-12\-11-12p11----14--12-11-11----------16--14-12\-11-12h14v--|
|--------------------------------------------12-9v~-------------------------|
|---------------------------------------------------------------------------|
|---------------------------------------------------------------------------|

|----------------------------------------------------1515-14-1515-17-17b19r17-|
|--------------------------------------------12/17~---------------------------|
|-14/17--16h17p16-14h16p14-12h14p12-11h12p11----------------------------------|
|-----------------------------------------------------------------------------|
|-----------------------------------------------------------------------------|
|-----------------------------------------------------------------------------|

|--15-14-15-14-------------------------14-----14-----14-----13---------|
|--------------15\--/13-12-13--12h13p12--12h13--12h13--11h12--9h11-/12-|
|----------------------------------------------------------------------|
|----------------------------------------------------------------------|
|----------------------------------------------------------------------|
|----------------------------------------------------------------------|
         T        T        T        T        T
|---------------------------------------------------------------------------|
|-12h13-20-12h13-19-12h13-17-13p12-20 12h13-19--12h13p12-10h12p10b11r10-----|
|---------------------------------------------------------------------------|
|---------------------------------------------------------------------------|
|---------------------------------------------------------------------------|
|---------------------------------------------------------------------------|

|-------------------------------------/17-15-14h15p14-------|
|-10h12p10----------15-17-19-20-19-15-----------------17\---|
|---------11h12--11-----------------------------------------|
|-----------------------------------------------------------|
|-----------------------------------------------------------|
|-----------------------------------------------------------|

The fast parts are not completely correct, but I gave it an honest effort.


(Interlude- no guitar to worry about, but there's more flute stuff like
in the intro, so here's that, arranged for guitar:
|--19~--------17~------------------12~---14~---15~-|
|-------17~---------15~-13~-12~--------------------|
|--------------------------------------------------|
|--------------------------------------------------|
|--------------------------------------------------|
|--------------------------------------------------|

Final Chorus (Key change)
|----------------------------------------------------------------------|
|----------------------------------------------------------------------|
|----------------------------------------------------------------------|
|-------3~---6~---1~---6~-5~-------------3~---6~---1~-----x-5--6p5-----|
|-3-3-3-3~---6~---1~---6~-5~-------3-3-3-3~---6~---1~--------6----6----|
|-3-3-3-3~---6~---1~---6~-5~-------3-3-3-3~---6~---1~------------------|
PM. . .                            . . .

|------------------------------------------------------------------------------------|
|--------------------------------9--8---------------------------------9--------------|
|--------------------------------x--x---------------------------------x--------------|
|-------3~--------6~--------1~---6--5--------3~--------6~--------1~---6--x-5--6p5----|
|-3-3-3-3~--6-6-6-6~--1-1-1-1~---------3-3-3-3~--6-6-6-6~--1-1-1-1~---------6----6---|
|-3-3-3-3~--6-6-6-6~--1-1-1-1~---------3-3-3-3~--6-6-6-6~--1-1-1-1~------------------|
PM. . .     . . .     . . .            . . .     . . .     . . .

Repeat chorus til fade.

Outro solo, again not 100%, but it sounds fine like this. (with octaver- or just play an 
up if you want)
|-----------------------------------------------------------------------|
|------13---11----------------11-9---------------13-11----------11--14--|
|-10------------13-12-13p12--------12-12-8-------------13-12-13---------|
|------------------------------------------10---------------------------|
|-----------------------------------------------------------------------|
|-----------------------------------------------------------------------|

|--------------------------------------------------------------------|
|--13h14p13p11-13p11----9p11----8---8--------13---11-----------------|
|--------------------13------12---8-----10------------13-12-13p12----|
|--------------------------------------------------------------------|
|--------------------------------------------------------------------|
|--------------------------------------------------------------------|

|-------------------------------------------------------------------------|
|-11--9-------------13-11----------------------4---------------------9p8--|
|-------12-12-8-----------13-12-13-15--\6p3h5p3-5-6p3h5p3---------------8-|
|---------------10---------------------------------------6p5--8h10p8------|
|-------------------------------------------------------------------------|
|-------------------------------------------------------------------------|
And that's all I'm tabbing :) You repeat the first bit again, throw in a
few more notes and the song's faded.
exibições 8.770
Acordes para:
    Composição: Kamelot Colaboração e revisão:
    • Hellektra

    0 comentários

    mostrar mais comentários

    Conseguiu tocar?

    2 tocaram 0 ainda não

    Grave um vídeo tocando The Haunting (somewhere In Time) e mande pra gente!

    00:00 / 00:00
    outros vídeos desta música
    repetir qualidade Automático
    Outros vídeos desta música
    00:00 / 00:00
    Automático
    OK