Cifra Club

Aprenda

Chismosa

Kamikazee

Cifra: Principal (violão e guitarra)
tom: D
(intro)

e|--------------------------------------------------------------|
b|--------------------------------------------------------------|
g|--------------------------------------------------------------|2x
d|--------------------------------------------------------------|
a|---1p0-1p0-1p0-1p0-1p0-1p0-1p0-1p0-1p0-1p0-1p0-1p0------333---|
e|---------------------------------------------------222--------|

e|--------------------------------------------------------------|
b|--------------------------------------------------------------|
g|--------------------------------------------------------------|
d|--------------------------------------------------------------|
a|---1p0-1p0-1p0-1p0-1p0-1p0-1p0-1p0----------------------------|
e|--------------------------------------------------------------|

(verse)
e|-----------------------------------------------------------------|
b|-----------------------------------------------------------------|
g|-----------------------------------------------------------------|
d|-3-3-3-3-3-3-3-3-3-3-3-3-----------------------------------------|
a|-1-1-1-1-1-1-1-1-1-1-1-1------333--222-22----222-22--------------|
e|--------------------------222------000-00----000-00--------------|
                                     *** **    *** **
e|-----------------------------------------------------------------------|
b|-----------------------------------------------------------------------|
g|-----------------------------------------------------------------------|
d|-3-3-3-3-3-3-3-3-3-3-3-3-----------------------------------------------|
a|-1-1-1-1-1-1-1-1-1-1-1-1------333--2222-22-2222-22--22-22-22-2222-22---|
e|--------------------------222------0000-00-0000-00--00-00-00-0000-00---|
                                     ***  ** **** **  ** ** ** **** **
e|-----------------------------------------------------------------|
b|-----------------------------------------------------------------|
g|-----------------------------------------------------------------|
d|-3-3-3-3-3-3-3-3-3-3-3-3-----------------------------------------|
a|-1-1-1-1-1-1-1-1-1-1-1-1------333--222-22----222-22--------------|
e|--------------------------222------000-00----000-00--------------|
                                     *** **    *** **

e|-----------------------------------------------------------------------|
b|-----------------------------------------------------------------------|
g|-----------------------------------------------------------------------|
d|-----------------------------------------------------------------------|
a|-22-22-22-22-22-22-22-22-22-22-22-22-22-22-22-22-22--------------------|
e|-00-00-00-00-00-00-00-00-00-00-00-00-00-00-00-00-00--------------------|
   ** ** ** ** ** ** ** ** ** ** ** ** ** ** ** ** **

e|--------------------------------------------------------------------|
b|-5555-4h5---5555-4h5---5555-4h5---5555-4h5--------------------------|
g|--------------------------------------------------------------------|
d|--------------------------------------------------------------------|
a|--------------------------------------------------------------------|
e|--------------------------------------------------------------------|

(chorus)
e|----------------------------------------------------------------------|
b|----------------------------------------------------------------------|
g|----------------------------------------------------------------------|
d|--------3-------3-------3-------3-------3-------3-------3-------3-----|
a|--22-22-1-22-22-1-22-22-1-22-22-1-22-22-1-22-22-1-22-22-1-22-22-1-----|
e|--00-00---00-00---00-00---00-00---00-00---00-00---00-00---00-00-------|
    ** **   ** **   ** **   ** **   ** **   ** **   ** **   ** **

then
(guitar i)
e|-----------------------------------------------------------------------|
b|-----------------------------------------------------------------------|
g|-2p0-2p0-2p0----2p0-2p0-2p0-----2p0-2p0-2p0-----2p0-2p0-2p0-4----------|
d|-----------------------------------------------------------------------|2x
a|-----------------------------------------------------------------------|
e|-----------------------------------------------------------------------|

e|-----------------------------------------------------------------------|
b|-----------------------------------------------------------------------|
g|-2p0-2p0-2p0----2p0-2p0-2p0-----2p0-2p0-2p0----------------------------|
d|------------------------------------------------5-6-7------------------|2x
a|------------------------------------------------3-4-5-5-7-6-5----------|
e|------------------------------------------------------4-5-4-3----------|

(guitar ii)
e|-----------------------------------------------------------------------|
b|-10p8-10p8-10p8--10p8-10p8-10p8--10p8-10p8-10p8--10p8-10p8-10p8-12~----|
g|-----------------------------------------------------------------------|
d|-----------------------------------------------------------------------|2x
a|-----------------------------------------------------------------------|
e|-----------------------------------------------------------------------|

e|--------------------------------------------------------------------|
b|--------------------------------------------------------------------|
g|--------------------------------------------------------------------|
d|--------------------------------------------------------------------|
a|-5-5-5-5-5-5-5-5-5-5-5-5-5-5-5-5-4-4-4-4-4-4-4-4-4------------------|
e|-3-3-3-3-3-3-3-3-3-3-3-3-3-3-3-3-2-2-2-2-2-2-2-2-2------------------|

(verse)

e|--------------------------------------------------------------------|
b|-5555-4h5---5555-4h5---5555-4h5---5555-4h5--------------------------|
g|--------------------------------------------------------------------|
d|--------------------------------------------------------------------|
a|--------------------------------------------------------------------|
e|--------------------------------------------------------------------|

(chorus)
(verse)

then
e|-----------------------------------------------------------------------|
b|-----------------------------------------------------------------------|
g|-----------------------------------------------------------------------|
d|-----------------------------------------------------------------------|
a|-22-22-22-22-22-22-22-22-22-22-22-22-22-22-22-22-22--------------------|
e|-00-00-00-00-00-00-00-00-00-00-00-00-00-00-00-00-00--------------------|
   ** ** ** ** ** ** ** ** ** ** ** ** ** ** ** ** **

e|----------------------------------------------------------------------|
b|----------------------------------------------------------------------|
g|----------------------------------------------------------------------|
d|--------3-------3-------------------------3-------------------------3-|
a|--22-22-1-22-22-1-22-22-22-22-22-22-22-22-1-22-22-22-22-22-22-22-22-1-|
e|--00-00---00-00---00-00-00-00-00-00-00-00---00-00-00-00-00-00-00-00---|
    ** **   ** **   ** ** ** ** ** ** ** **      ** ** ** ** ** ** **
e|----------------------------------------------------------------------|
b|----------------------------------------------------------------------|
g|----------------------------------------------------------------------|
d|--------3-------3-------------------------3---------------------------|
a|--22-22-1-22-22-1-22-22-22-22-22-22-22-22-1---------------------------|
e|--00-00---00-00---00-00-00-00-00-00-00-00---45454545454545454545454---|
    ** **   ** **   ** ** ** ** ** ** ** **
Chismisan time--

e|-----------------------------------------------------------------------|
b|-----------------------------------------------------------------------|
g|--------------------------------------------9-9-9-9-9-9-9-9-9-9-9-9-9--|
d|-----------------------------------------------------------------------|
a|-22-22---22-22---22-22----22-22-----22-22---7-7-7-7-7-7-7-7-7-7-7-7-7--|
e|-00-00---00-00---00-00----00-00-----00-00------------------------------|
   ** **   ** **   ** **    ** **     ** **

                                                    mahilig ako sa kanto...
e|-----------------------------------------------------------------------|
b|-----------------------------------------------------------------------|
g|-----------------------------------------------------------------------|
d|-----------------------------------------------------------------------|
a|-22-22-22-22-22-22-22-22-22-22-22-22-22-22-22-22-22--------------------|
e|-00-00-00-00-00-00-00-00-00-00-00-00-00-00-00-00-00--------------------|
   ** ** ** ** ** ** ** ** ** ** ** ** ** ** ** ** **
Kantotan... chimismismis...
e|----------------------------------------------------|
b|----------------------------------------------------|
g|----------------------------------------------------|
d|-22-22----------------------------------------------|
a|-00-00----------------------------------------------|
e|--------4-3-2-0--3-4--3-6-----4-3-2-0--3-4--3-6-----|

e|----------------------------------------------------|
b|----------------------------------------------------|
g|----------------------------------------------------|
d|----------------------------------------------------|
a|----------------------------------------------------|
e|--------444-3-2-0--3-4--3-6---444-3-2-0-3-4--3-6----|
          *** * * *  * *  * *   *** * * * * *  * *
e|-----------------------------------------------------------------------|
b|-----------------------------------------------------------------------|
g|-----------------------------------------------------------------------|
d|-----------------------------------------------------------------------|
a|-----------------------------------------------------------------------|
e|--------444-3-2-0--33-4-3-6---444-3-2-0--33-4-3-6--444-3-2-0--33-4-3-6-|
          *** * * *  ** * * *   *** * * *  ** *  * * *** * * *  ** *  * *

Chismisan uli//
e|-----------------------------------------------------------------|
b|-----------------------------------------------------------------|
g|-----------------------------------------------------------------|
d|-3-3-3-3-3-3-3-3-3-3-3-3---------3-3-3-3-3-3-3-3-3-3-3-3---------|
a|-1-1-1-1-1-1-1-1-1-1-1-1--22-222-1-1-1-1-1-1-1-1-1-1-1-1-22-222--|
e|--------------------------00-000-------------------------00-000--|
                            ** ***                         ** ***
e|-----------------------------------------------------------------------|
b|-----------------------------------------------------------------------|
g|-----------------------------------------------------------------------|
d|-----------------------------------------------------------------------|
a|---22-222---22-222---22-222---22-222--2--------------------------------|
e|---00-000---00-000---00-000---00-000--0--------------------------------|
     ** ***   ** ***   ** ***   ** ***

e|------------------------------------------------------------------|
b|------------------------------------------------------------------|
g|------------------------------------------------------------------|
d|-----------------------------------3----------------------------3-|
a|--22-22-22-22-22-22-22-22-22-22-22-1-22-22-22-22-22-22-22-22-22-1-|
e|--00-00-00-00-00-00-00-00-00-00-00---00-00-00-00-00-00-00-00-00---|
    ** ** ** ** ** ** ** ** ** ** **   ** ** ** ** ** ** ** ** **
e|------------------------------------------------------------------|
b|------------------------------------------------------------------|
g|------------------------------------------------------------------|
d|------------------------------------------------------------------|
a|--22-22-22-22-22-22-22-22-22-22-22-22-22-22-22-22-22-22-22-22-22--|
e|--00-00-00-00-00-00-00-00-00-00-00-00-00-00-00-00-00-00-00-00-00--|
    ** ** ** ** ** ** ** ** ** ** ** ** ** ** ** ** ** ** ** ** **

e|----------------------|
b|----------------------|
g|----------------------|
d|-------5-6-7----------|
a|-------3-4-5-5-7-6-5--|
e|-------------4-5-4-3--|

e|--------------------------------------------------------------------|
b|--------------------------------------------------------------------|
g|--------------------------------------------------------------------|
d|--------------------------------------------------------------------|
a|-5-5-5-5-5-5-5-5-5-5-5-5-5-5-5-5-4-4-4-4-4-4-4-4-4------------------|
e|-3-3-3-3-3-3-3-3-3-3-3-3-3-3-3-3-2-2-2-2-2-2-2-2-2------------------|

(verse)
Compositor não encontrado.
Colaboração e revisão:
  • Élison Duarte
56 exibições
    • ½ Tom
    • A
    • Bb
    • B
    • C
    • Db
    • D
    • Eb
    • E
    • F
    • F#
    • G
    • Ab
  • Adicionar à lista

    0 comentários

    Ver todos os comentários

    Conseguiu tocar?

    0 Tocaram 0 Ainda não

    Grave um vídeo tocando Chismosa e nos envie!

    00:00 / 00:00
    Outros vídeos desta música
    Repetir Qualidade Automático
    Outros vídeos desta música
    00:00 / 00:00
    Automático

    Cifra Club Pro

    Aproveite o Cifra Club com benefícios exclusivos e sem anúncios
    Cifra Club Pro
    Aproveite o Cifra Club com benefícios exclusivos e sem anúncios
    OK