Cifra Club

Aprenda

Eschoos Me

Kamikazee

Cifra: Principal (violão e guitarra)
tom: A
(intro)

(guitarI)
|-----------------------------------------------------|
|-----------------------------------------------------|
|----------------------------------------------55-77--|
|----------------------------------------------55-77--|
|-0-0-5-0-6-0-7-0--0-5-0-6-0-7-0--0-5-0-6-0-7--33-55--|
|-----------------------------------------------------|

|------------------------------------------------------------|
|------------------------------------------------------------|
|------------------------------------------------------------|
|------------------------------------------------------------|
|-0-0-5-0-6-0-7-0--0-5-0-6-0-7-0--0-5-0-6-0-7-0-------5h6p5--|
|------------------------------------------------------------|

|-----------------------------------------------------|
|-----------------------------------------------------|
|-----------------------------------------------------|
|----------------------------------------------55-77--|
|-0-0-5-0-6-0-7-0--0-5-0-6-0-7-0--0-5-0-6-0-7--33-55--|
|-----------------------------------------------------|

|--------------------------------------------------------------|
|--------------------------------------------------------------|
|--------------------------------------------------------------|
|-------------------------------------------------------55-77--|
|-0-0-10-0-11-0-12-0--0-10-0-11-0-12-0--0-10-0-11-0-12--33-55--|
|--------------------------------------------------------------|

(guitarII)
|-------------------------------|
|-------------------------------|
|-----------------------777-----|
|-7----7----7~---7------777-----|
|-7----7----7~---7------555-----|
|-5----5----5~---5--------------|

|---------------------------------------|
|---------------------------------------|
|--------------55-77--------------55-77-|
|-777777777777-55-77-777777777777-55-77-|2x
|-777777777777-33-55-777777777777-33-55-|
|-555555555555-------555555555555-------|

(verse)
(guitarI)
|-----------------------------------------------|
|-----------------------------------------------|
|-----------------------------------------------|
|-----------------------------------------------|
|-0-0-5-0-6-0-7-0--0-5-0-6-0-7-0--0-5-0-6-0-7---|
|-----------------------------------------------|

|---------------------------------------------------------|
|---------------------------------------------------------|
|----------------------------------------------xxx77/8\7--|
|----------------------------------------------xxxxx/x\x--|
|-0-0-5-0-6-0-7-0--0-5-0-6-0-7-0--0-5-0-6-0-7--xxx55/6\5--|
|---------------------------------------------------------|

(guitarII)
|---------------------------------------------------------|
|---------------------------------------------------------|
|----------------------------------------------xxx77/8\7--|
|-7--------------------7-----------------------xxxxx/x\x--|
|-7--------------------7-----------------------xxx55/6\5--|
|-5--------------------5----------------------------------|

(refrain)
(guitar I&II)
|---------------------------------------|
|---------------------------------------|
|--------------55-77--------------55-77-|
|-777777777777-55-77-777777777777-55-77-|
|-777777777777-33-55-777777777777-33-55-|
|-555555555555-------555555555555-------|

then

(breakdown)
(guitarI)
|----------------------------------------------------------------------|
|----------------------------------------------------------------------|
|----------------------------------------------------------------------|
|-2~-----2~-----2~-----------------2~----------------------------------|
|-2~-----2~-----2~-----------------2~----------------------------------|
|-0~-----0~-----0~-----------------0~----------------------------------|
(guitarII)
|------------------------------------------------------------------|
|------------------------------------------------------------------|
|-9~-----9~-----9999999999999999--1616161616161616161616161616-----|
|-9~-----9~--------------------------------------------------------|
|-7~-----7~-----7777777777777777--1414141414141414141414141414-----|
|------------------------------------------------------------------|

(prechorus 1)
(guitarI)
|-------------------------------------------------------|
|-------------------------------------------------------|
|----------------------------------------------5--55-77-|
|----------------------------------------------5--55-77-|
|-0-0-5-0-6-0-7-0--0-5-0-6-0-7-0--0-5-0-6-0-7--3--33-55-|
|-------------------------------------------------------|

(guitarI)
|-------------------------------------------------------|
|-------------------------------------------------------|
|----------------------------------------------5--55-77-|
|-7--------------------------7-----------------5--55-77-|
|-7--------------------------7-----------------3--33-55-|
|-5--------------------------5--------------------------|
(chorus)
(guitarI)
|----------------------------------|
|----------------------------------|
|--------------------------55-77---|
|-2-2-2-2-5-5-5-5-7-7-7-7--55-77---|3x
|-2-2-2-2-5-5-5-5-7-7-7-7--33-55---|
|-0-0-0-0-3-3-3-3-5-5-5-5----------|
(guitarII)
|-------------------------------------------------------------|
|-------------------------------------------------------------|
|-9-9-9-9------------------55-77----9999-7777-6666-5----777---|
|-9-9-9-9-5-5-5-5-7-7-7-7--55-77------------------------------|
|-7-7-7-7-5-5-5-5-7-7-7-7--33-55----7777-5555-4444-3-33-555---|
|---------3-3-3-3-5-5-5-5-------------------------------------|
                                                     **
|----------------------------------|
|----------------------------------|
|-9-9-9-9------------------55-77---|
|-9-9-9-9-5-5-5-5-7-7-7-7--55-77---|
|-7-7-7-7-5-5-5-5-7-7-7-7--33-55---|
|---------3-3-3-3-5-5-5-5----------|

(verse / refrain)
(chorus)

(interlude)
|----------------------------------------------------------------------|
|----------------------------------------------------------------------|
|----------------------------------------------------------------------|
|----------------------------------------------------------------------|
|--------------5^-----5p0-7^---------------------5^--------------------|
|-5-6-7^--0-3p0----3p0---------0-5h7p5-0----0-3p0-----3p0--5h7p5-0-----|

|-------------------------------------------------------------------------|
|-------------------------------------------------------------------------|
|-------------------------------------------------------------------------|
|-------------------------------------------------------------------------|
|--------------5^-----5p0-7^---------------------5^-----------------------|
|-5-6-7^--0-3p0----3p0---------0-5h7p5-0----0-3p0-----3p0--5h7p5-0-h5p3-0-|

then-
(guitarI)
|----------------------------------------------------------------------|
|----------------------------------------------------------------------|
|----------------------------------------------------------------------|
|----------------------------------------------------------------------|2x
|---7---6----5----4-----3^*-------7---6----5----4-----2^*--------------|
|-0---0---00---00----00---------0---0---00---00----00------------------|
   *   *   **   **   **         *   *   **   **    **
(guitarII)
|----------------------------------------------------------------------|
|----------------------------------------------------------------------|
|----------------------------------------------------------------------|
|-2~-------------2~---------------2~----------------2~----xxxx---------|
|-2~-------------2~---------------2~----------------2~----xxxx---------|
|-0~-------------0~---------------0~----------------0~----xxxx---------|

then-
(guitarI)
|----------------------------------------------------------------------|
|----------------------------------------------------------------------|
|----------------------------------------------------------------------|
|----------------------------------------------------------------------|
|----------------------------------------------------------------------|
|-0-5-0-6-0-7-0-8-0-7-0-6h7p5-0----0-5-0-6-0-7-0-8-0-7-0-6h7p5-0-------|
(guitarII)
|----------------------------------------------------------------------|
|----------------------------------------------------------------------|
|----------------------------------------------------------------------|
|-2-2-2-2-2-2-2-2-2-2-2-2-2-2-2-2-2-2-2-2-2-2-2-2-2-2-2-2-2-2-2-2-2-2~-|
|-2-2-2-2-2-2-2-2-2-2-2-2-2-2-2-2-2-2-2-2-2-2-2-2-2-2-2-2-2-2-2-2-2-2~-|
|-0-0-0-0-0-0-0-0-0-0-0-0-0-0-0-0-0-0-0-0-0-0-0-0-0-0-0-0-0-0-0-0-0-0~-|

(then bass and drums)

drumbeats-chichikiri,,,mommy rockers ako!

(pak!)aray!..punyeta k...banda k n ng ng banda..
(guitarI)
|----------------------------------------------------------------------|
|-12~-----14~------15~--------------12~-----14~------15~---------------|
|-13~-----14~------14~--------------13~-----14~------14~---------------|
|----------------------------------------------------------------------|
|----------------------------------------------------------------------|
|----------------------------------------------------------------------|
(timingan nyo na lng)
chichikiri.........                                                iw...
|-12--12--12--12--12--12----15--15--15--15----17--17---17--17--17--17--|
|-15^-15^-15^-15^-15^-15^---18^-18^-18^-18^---20^-20^--20^-20^-20^-20^-|
|----------------------------------------------------------------------|
|----------------------------------------------------------------------|
|----------------------------------------------------------------------|
|----------------------------------------------------------------------|

then
(interude II)
|------------------------------------------------------------------------|
|------------------------------------------------------------------------|
|------------------------------------------------------------------------|
|------------------------------------------------------------------------|
|--------------7777--------------7777-------------7777--------------7777-|
|-000000000000------000000000000------000000000000-----000000000000------|
  ************      ************      ************     ************
|------------------------------------------------------------------7/9---|
|------------------------------------------------------------------8/10--|
|------------------------------------------------------------------------|
|------------------------------------------------------------------------|
|--------------7777--------------7777-------------7777-------------------|
|-000000000000------000000000000------000000000000-----0-----------------|
  ************      ************      ************
|----------------------------------------------------------------------|
|----------------------------------------------------------------------|
|----------------------------------------------------------------------|
|-2~-------------2~---------------2~----------------2------------------|
|-2~-------------2~---------------2~----------------2------------------|
|-0~-------------0~---------------0~----------------0------------------|

then
both
(guitarI)
|----------------------------------------------------------------------------|
|----------------------------------------------------------------------------|
|----------------------------------------------------------------------------|
|----------------------------------------------------------------------------|
|-0-0-5-0-6-0-7-0--0-5-0-6-0-7-0--0-5-0-6-0-7-0-0-5-0-6-0-7-7---7---7---xxx--|
|-----------------------------------------------------------5---5---5---xxx--|
(guitarII)
|-------------------------------------------------------|
|-------------------------------------------------------|
|-------------------------------------------------------|
|-7-7-7-7-7-7-7-7-7-7-7-7-7-7-7-7-----7---7---7---xxx---|
|-7-7-7-7-7-7-7-7-7-7-7-7-7-7-7-7-----7---7---7---xxx---|
|-5-5-5-5-5-5-5-5-5-5-5-5-5-5-5-5-----5---5---5---xxx---|

(chorus)
(guitarI)
|----------------------------------|
|----------------------------------|
|--------------------------55-77---|
|-2-2-2-2-5-5-5-5-7-7-7-7--55-77---|
|-2-2-2-2-5-5-5-5-7-7-7-7--33-55---|
|-0-0-0-0-3-3-3-3-5-5-5-5----------|

|----------------------------------|
|----------------------------------|
|--------------------------5--7----|
|-2-2-2-2-5-5-5-5-7-7-7-7--5--7----|
|-2-2-2-2-5-5-5-5-7-7-7-7--3--5----|
|-0-0-0-0-3-3-3-3-5-5-5-5----------|

|----------------------------------|
|----------------------------------|
|--------------------------55-77---|
|-2-2-2-2-5-5-5-5-7-7-7-7--55-77---|
|-2-2-2-2-5-5-5-5-7-7-7-7--33-55---|
|-0-0-0-0-3-3-3-3-5-5-5-5----------|

|----------------------------------|
|----------------------------------|
|----------------------------------|
|-2-2-2-2-5-5-5-5-7-7-7-7----------|
|-2-2-2-2-5-5-5-5-7-7-7-7----------|
|-0-0-0-0-3-3-3-3-5-5-5-5----------|

|----------------------------------------------------------------------|
|----------------------------------------------------------------------|
|-5-5-5-5-5-5-5-5--7-7-7-7--9-9-9-9--11111111111111111111111111111111--|
|----------------------------------------------------------------------|
|-3-3-3-3-3-3-3-3--5-5-5-5--7-7-7-7--9-9-9-9-9-9-9-9-9-9-9-9-9-9-9-9---|
|----------------------------------------------------------------------|

|----------------------------------------------------------------------|
|----------------------------------------------------------------------|
|-7-7-7-7-7-7-7-7-9-9-9-9-11-11-11-11-14141414141414141414141414141414-|
|----------------------------------------------------------------------|
|-5-5-5-5-5-5-5-5-7-7-7-7-9--9--9--9--12121212121212121212121212121212-|
|----------------------------------------------------------------------|
(guitarII)
|-------------------------------------------------------------|
|-------------------------------------------------------------|
|-9-9-9-9------------------55-77----9999-7777-6666-5----7-----|
|-9-9-9-9-5-5-5-5-7-7-7-7--55-77-------------------5----7-----|
|-7-7-7-7-5-5-5-5-7-7-7-7--33-55----7777-5555-4444-3----5-----|
|---------3-3-3-3-5-5-5-5-------------------------------------|

|-------------------------------------------------------------|
|-------------------------------------------------------------|
|-9-9-9-9------------------55-77----9999----------------------|
|-9-9-9-9-5-5-5-5-7-7-7-7--55-77----9999-5555-7777------------|
|-7-7-7-7-5-5-5-5-7-7-7-7--33-55----7777-5555-7777------------|
|---------3-3-3-3-5-5-5-5----------------3333-5555------------|

|----------------------------------------------------------------------|
|----------------------------------------------------------------------|
|-55555555555555555555555555555-777777777777777777777777777777777------|
|----------------------------------------------------------------------|
|-33333333333333333333333333333-555555555555555555555555555555555------|
|----------------------------------------------------------------------|

(end with)
|------------------------------------|
|------------------------------------|
|------------------------------------|
|-77---77---77---77---7--------------|
|-77---77---77---77---7--------------|
|-55---55---55---55---5--------------|
Compositor não encontrado.
Colaboração e revisão:
  • Élison Duarte
63 exibições
    • ½ Tom
    • A
    • Bb
    • B
    • C
    • Db
    • D
    • Eb
    • E
    • F
    • F#
    • G
    • Ab
  • Adicionar à lista

    0 comentários

    Ver todos os comentários

    Conseguiu tocar?

    0 Tocaram 0 Ainda não

    Grave um vídeo tocando Eschoos Me e nos envie!

    00:00 / 00:00
    Outros vídeos desta música
    Repetir Qualidade Automático
    Outros vídeos desta música
    00:00 / 00:00
    Automático

    Cifra Club Pro

    Aproveite o Cifra Club com benefícios exclusivos e sem anúncios
    Cifra Club Pro
    Aproveite o Cifra Club com benefícios exclusivos e sem anúncios
    OK