Cifra Club

Aprenda

Sana Kahit Minsan

Kamikazee

Cifra: Principal (violão e guitarra)
tom: C
                    SANA KAHIT MINSAN BY: KAMIKAZE
                        transcribed by: freon
                  visit me at: *
                        *

intro:
e|----------------------------------------|
B|----------------------------------------|
G|-5------------------5-------------------|
D|-5------------------5-------------------|
A|-3-2-2-2-2-2-2-2-2--3-2-2-2-2-2-2-2-2---|
E|---x-x-x-x-x-x-x-x----x-x-x-x-x-x-x-x---|

 bakit ikaw ang nais matanaw... / sa taglay mong ganda... 
          D                           C
e|------------------------------------------------|
B|------------------------------------------------|
G|------7---------------------------5-------------|
D|------7(X12)----------------------5(X8)---------|
A|------5---------------------------3-------------|
E|------------------------------------------------|

  nais kong marinig malandi mong tinig...(F,G,A,Bm)
e|------------------------------------------|
B|------------------------------------------|
G|------------------------------------------|
D|-3-x-5-5-5-5-----7-7-7/9-9-9--------------|
A|-3-x-5-5-5-5-x-x-7-7-7/9-9-9--------------|
E|-1-x-3-3-3-3-x-x-5-5-5/7-7-7--------------|

e|--------------------------  -----------------------------------------|
B|--------------------------  -----------------------------------------|
G|-7-7-7-7-9-9-9-9-11-11-11-  -7-7-7-7-9-9-9-9-11-11-11-12-12-12-13-13-|
D|--------------------------  -----------------------------------------|
A|-5-5-5-5-7-7-7-7-9--9--9--  -5-5-5-5-7-7-7-7-9--9--9--10-10-10-11-11-|
E|--------------------------  -----------------------------------------|

  sana kahit minsan...  / ay mapansin ako...  / malaman man kita'y... X2
e|--------------------------------------------------------------|
B|--------------------------------------------------------------|
G|-5-5-5-5-7-7-7-7----------------------------------------------|
D|-5-5-5-5-7-7-7-7---------7-7-7-7-9-9-9-9------5-5-5-5-7-7-7-7-|
A|-3-3-3-3-5-5-5-5---------7-7-7-7-9-9-9-9------5-5-5-5-7-7-7-7-|
E|-------------------------5-5-5-5-7-7-7-7------3-3-3-3-5-5-5-5-|
    (break)
e|--------------------------------|
B|--------------------------------|
G|--------------------------------|
D|--5-4----5-x-5-x-5-x-5----------|
A|--5-4----5-x-5-x-5-x-5----------|
E|--3-2----3-x-3-x-3-x-3----------|
    just follow the sequence nlng... 2nd time palm mute na laht...
                  

Compositor não encontrado.
415 exibições
    • ½ Tom
    • A
    • Bb
    • B
    • C
    • Db
    • D
    • Eb
    • E
    • F
    • F#
    • G
    • Ab
  • Adicionar à lista

    0 comentários

    Ver todos os comentários

    Conseguiu tocar?

    0 Tocaram 0 Ainda não

    Grave um vídeo tocando Sana Kahit Minsan e nos envie!

    00:00 / 00:00
    Outros vídeos desta música
    Repetir Qualidade Automático
    Outros vídeos desta música
    00:00 / 00:00
    Automático

    Cifra Club Pro

    Aproveite o Cifra Club com benefícios exclusivos e sem anúncios
    Cifra Club Pro
    Aproveite o Cifra Club com benefícios exclusivos e sem anúncios
    OK