Cifra Club

Chorando Se Foi (Lambada)

Kaoma

Cifra: Principal (violão e guitarra)
Selo Cifra Club: esta cifra foi revisada para atender aos critérios oficiais da nossa Equipe de Qualidade.
tom: F
[Intro] Dm  Bb

E|-5-3-1-0------1-0-----------------------|
B|---------3--3-------3-1-3---------------|
G|--------------------------2-0-2---------|
D|----------------------------------------|
A|----------------------------------------|
E|----------------------------------------|

E|-5-3-1-0------1-0-----------------------|
B|---------3--3-------3-1-3---------------|
G|--------------------------2-0-2---------|
D|----------------------------------------|
A|----------------------------------------|
E|----------------------------------------|

E|-3-3-3-1-----5-3----1----1-0------------|
B|-----------3------------3---3-1-1-3-1-3-|
G|--------3-3-----------3-----------------|
D|----------------------------------------|
A|----------------------------------------|
E|----------------------------------------|

E|-3-3-3-1-----5-3----1----1-0------------|
B|-----------3------------3---3-1-1-3-1-3-|
G|--------3-3-----------3-----------------|
D|----------------------------------------|
A|----------------------------------------|
E|----------------------------------------|

   Dm                    Bb   C         Dm
Chorando se foi quem um dia so me fez chorar
   Dm                    Bb   C         Dm
Chorando se foi quem um dia so me fez chorar
Gm
Chorando estará ao lembrar de um amor
         C             Dm
Que um dia não soube cuidar
Gm
Chorando estará ao lembrar de um amor
 C             Dm
Que um dia não soube cuidar
  Dm                    Bb   C         Dm
A recordação vai estar com ele aonde for
Dm                    Bb  C         Dm
A recordação vai estar pra sempre aonde eu for
Gm
Dança, sol e mar guardarei no olhar
C                    Dm
O amor faz perder e encontrar
Gm
Lambando estarei ao lembrar que este amor
C                        Dm     F  Gm  C  Dm
Por um dia, um instante foi rei
Dm            Bb       C
A recordação vai estar com ele aonde for
Dm                    Bb   C         Dm
A recordação vai estar pra sempre aonde eu for
Gm
Chorando estará ao lembrar de um amor
C                    Dm
Que um dia nao soube cuidar
Gm
Canção, riso, e dor, melodia de amor
C                    Dm    F   
Um momento que ficou no ar

( Gm  C  Dm  )

 Dm      F
Ai ai ai
    Dm        F
Dançando Lambada!
Outros vídeos desta música
    168.273 exibições
      • ½ Tom
      • A
      • Bb
      • B
      • C
      • Db
      • D
      • Eb
      • E
      • F
      • F#
      • G
      • Ab
    • Adicionar à lista

    Afinação da cifra

    Afinador online

      0 comentários

      Ver todos os comentários

      Entre para o Cifra Club PRO

      Tenha acesso a benefícios exclusivos no App e no Site

      • Chega de anúncios

      • Badges exclusivas

      • Mais recursos no app do Afinador

      • Atendimento Prioritário

      • Aumente seu limite de lista

      • Ajude a produzir mais conteúdo

      Cifra Club Pro

      Aproveite o Cifra Club com benefícios exclusivos e sem anúncios
      Cifra Club Pro
      Aproveite o Cifra Club com benefícios exclusivos e sem anúncios
      OK