Cifra Club

Brick By Brick

Katy Perry

Cifra: Principal
exibições 12.508
Tom: D# (com acordes na forma de D) Capotraste na 1ª casa
(capo 1ª casa)

(intro - same as verse)

(verse)
e|------------------------------------------------------------------|
b|------------------------------------------------------------------|
g|------------------------------------------------------------------|
d|------------------------------------------------------------------|
a|---12-------9---------7---------5----------12---------------------|
e|---10-------7---------6---------3----------10---------------------|

(pre-chorus)
e|-----------------------------|----------------|
b|-----------------------------|----------------|
g|-----------------------------|----2-----------|
d|-----------------------------|----2-----------|
a|---6--------10-------8-------|----0-----------|
e|---4--------8--------6-------|----2-----------|
        {------2x------}

(chorus)
e|---3----2----------|---2----------------------|--2----------------------|
b|---3----3-----0----|---3-----3------3-----3---|--3----3-----------------|
g|---0----2-----2----|---4-----4------4-----4---|--4----4---0-------------|
d|---0----0-----2----|---4-----4------4-----4---|--4----4---2-------------|
a|---2----------0----|---2-----0------x-----x---|--2----0---2---4---5-----|
e|---3---------------|---2-----0------3-----4---|--2----0-------2---3-----|
   {-------3x-------}

(verse)
(pre-chorus)
(chorus)

(bridge)
e|------------------------------------------------------------------|------|
b|------------------------------------------------------------------|------|
g|------------------------------------------------------------------|--2---|
d|------------------------------------------------------------------|--2---|
a|--10-----5------9--------10--------5-------9-------7------5-------|--0---|
e|--8------3------7---------8--------3-------7-------5------3-------|--2---|

(chorus)
(play the 2nd section of the chorus 3x on the last chorus)
(repeat the last three notes of the chorus and end on the first note of the verse)
Acordes para:
    Composição: Greg Wells / Katy PerryColaboração e revisão:
    • Élison Duarte

    0 comentários

      mostrar mais comentários

      Conseguiu tocar?

      2tocaram0ainda não

      Grave um vídeo tocando Brick By Brick e mande pra gente!

      00:00 / 00:00
      outros vídeos desta música
      repetirqualidadeautomática
      Outro vídeos desta música
        00:00 / 00:00
        automática
        OK