Cifra Club

Firework

Katy Perry

Tab de baixo: Principal
exibições 3.487
G|-------------------------------------------------------------------|
D|-------------------------------------------------------------------|
A|-------------------------------------------------4-4-4-4-4-4-4-4---|
E|-4-4-4-4-4-4-4-4-6-6-6-6-6-6-6-6-1-1-1-1-1-1-1-1-------------------|

G|-------------------------------------------------------------------|
D|-------------------------------------------------------------------|
A|-------------------------------------------------4-4-4-4-4-4-4-4---|
E|-4-4-4-4-4-4-4-4-6-6-6-6-6-6-6-6-1-1-1-1-1-1-1-1-------------------|

G|------------------------------------------------------------------|
D|------------------------------------------------------------------|
A|-------------------------------------------------x-4-x-4-x-4-x-4--|
E|-x-4-x-4-x-4-x-4-x-6-x-6-x-6-x-6-x-1-x-1-x-1-x-1------------------|

G|-------------------------------------------------------------------|
D|-------------------------------------------------------------------|
A|-------------------------------------------------4-3-----4-3-------|
E|-4-4-4-4-4-4-4-4-6-6-6-6-6-6-6-6-1-1-1-1-1-1-1-1-----6-4-----6-4---|

G|--------------------------------------------------------------------|
D|--------------------------------------------------------------------|
A|---------------------------------4-4-4-4-4-4-4-4-4-4-4-4-4-4-4-4----|
E|-1-1-1-1-1-1-1-1-1-1-1-1-1-1-1-1------------------------------------|

G|------------------------------------------------------------------------------------|
D|------------------------------------------------------------------------------------|
A|------------------------------------------------------------------------------------|
E|-4-4-4-4-4-4-4-4-4-4-4-4-4-4-4-4--11-11-11-11-11-11-11-11-11-11-11-11-11-11-11-11---|

G|--------------------------------------------------------------------|
D|--------------------------------------------------------------------|
A|-------------------------------------------------4-3-----4-3--------|
E|-4-4-4-4-4-4-4-4-6-6-6-6-6-6-6-6-1-1-1-1-1-1-1-1-----6-4-----6-4~---|
Colaboração e revisão:
  • Mansinho Jr.

0 comentários

    mostrar mais comentários

    Conseguiu tocar?

    0tocaram1ainda não

    Grave um vídeo tocando Firework e mande pra gente!

    00:00 / 00:00
    outros vídeos desta música
    repetirqualidadeautomática
    Outro vídeos desta música
      00:00 / 00:00
      automática
      OK