Cifra Club

Hackensack

Katy Perry

Cifra: Principal
exibições 9.770
Tom: C
(Atente à afinação do violão)

Intro: Am  C  F  C

D|----------------------------------------------------------------|
A|----------------------------------------------------------------|
F|-----------------------------------------3--1-------------------|
C|----------------------------------3p2-3-------------------------|
G|---------5------------------------------------3-----------------|
D|--5p3-5-----5p3/1--3--5--5--------------------------------------|

D|----------------------------------------------------------------|
A|----------------------------------------------------------------|
F|----------------------------------------------------------------|
C|----------------------------------------------------------------|
G|---------5-------------------------------1--0-------------------|
D|--5p3-5-----5p3--1--3--5--5-------1p0-1-------1-----------------|

Am                 C
I used to know you when we were young
F           C       E
You were in all my dreams
Am                C
We sat together in period one
F         C      E
Fridays at eight fifteen
Am               C
Now I see your face in the strangest places
F       C  E
Movies and magazines
Am                 C
I saw you talkin' to Christopher Walken
F     C
On my TV screen

Refrão:
F                  C
But I will wait for you
F        Em      G
As long as I need to
Am                         C
And if you ever get back to Hackensack
F                C
I'll be here for you

( Am  C  F  C )

D|----------------------------------------------------------------|
A|----------------------------------------------------------------|
F|----------------------------------------------------------------|
C|----------------------------------------------------------------|
G|---------5-------------------------------1--0-------------------|
D|--5p3-5-----5p3--1--3--5--5-------1p0-1-------1-----------------|

Am              C
I used to work in a record store
F            C
Now I work for my dad
Am                     C
Scraping the paint off of hard wood floors
F         C             E
The hours are pretty bad
Am                 C
Sometimes I wonder where you are
F          C
Probably in L.A.
Am                    C
That seems to be where everybody
F            C
Else ends up these days

Refrão:
F                  C
But I will wait for you
F        Em      G
As long as I need to
Am                         C
And if you ever get back to Hackensack
F                C
I'll be here for you

Solo: F  C  G  E

F                  C
But I will wait for you
F        Em      G
As long as I need to
Am                         C
And if you ever get back to Hackensack
F                C
I'll be here for you
Acordes para:
    Composição: Adam Schlesinger / Chris CollingwoodColaboração e revisão:
    • Natalie Sanches
    • Leonardo Felipe
    • Thaina Nunes

    0 comentários

      mostrar mais comentários

      Conseguiu tocar?

      7tocaram0ainda não

      Grave um vídeo tocando Hackensack e mande pra gente!

      00:00 / 00:00
      outros vídeos desta música
      repetirqualidadeautomática
      Outro vídeos desta música
        00:00 / 00:00
        automática
        OK