Cifra Club

Fica Tranquilo

Kemilly Santos

Cifra: Principal
exibições 55.203
Tom: F#
[Intro]  D#m  B  F#  C#7

[Solo]

Parte 1


E|------------------------------------------|
B|------------------------------------------|
G|----10-11-10-------------13/15------------|
D|-13----------13-11-11/13------------------|
A|------------------------------------------|
E|------------------------------------------|


E|------------------------------------------|
B|------------------------------------------|
G|----10-11-10--------------16~-------------|
D|-13----------13-11-11/13------------------|
A|------------------------------------------|
E|------------------------------------------|


E|------------------------------------------|
B|----9-11-12-14-16-14----------------------|
G|-11------------------11-------------------|
D|------------------------------------------|
A|------------------------------------------|
E|------------------------------------------|


E|------------------------------------------|
B|----9-11-12-11-9----------11h12-12-11-----|
G|-10--------------11-11/13-11-------11-----|
D|------------------------------------------|
A|------------------------------------------|
E|------------------------------------------|


Parte 2


E|------------------------------------------|
B|------------------------------------------|
G|----10-11-10-------------13/15------------|
D|-13----------13-11-11/13------------------|
A|------------------------------------------|
E|------------------------------------------|


E|----13-14-13----------18b19---------------|
B|-16----------16-14-16---------------------|
G|------------------------------------------|
D|------------------------------------------|
A|------------------------------------------|
E|------------------------------------------|


E|------------------------------------------|
B|-14-14------------------------------------|
G|-------15-15-13-13-11-11-13-11/13---------|
D|------------------------------------------|
A|------------------------------------------|
E|------------------------------------------|


                    F#                            C#7
De tempestades e bonanças, não temo mais ondas e ventos
                   D#m                        B
O que pra mim e impossível pra Deus e só questão de tempo
                   F#                            C#
O mar e grande eu sou pequeno, mas Deus não vai me abandonar
                        D#m                       B
Isso e historia pra eu viver, experiencia pra contar
                   G#m      C#7
Isso e Jesus a me moldar

F#
Estás sofrendo mas também tá aprendendo né?
 B
Tá machucando mas também tá te ensinando então
         F#                                           C#
Toda promessa tem um tempo de espera, mas Deus já decretou vitória nessa guerra

       D#m                   B
Fica tranquilo, não se desespera
              F#                                            C#
Se foi Deus quem prometeu a promessa está de pé, somente espera
            D#m                B
Mantenha a calma, não perca a fé
        F#                                                    C#
Se teu joelho está no chão,teu inimigo não consegue ficar de pé

           F#                                   C#
Fica tranquilo, Deus está providenciando um sorriso
                                 D#m
Pra aquela noite que você passou aflito
                         B
Esse gemido será substituído por um hino de vitória
          F#
Não ceda, agora
                             C#
Não se limite apenas ao teu sofrimento
                                  D#m
Eu sei exatamente o que estou eu fazendo
                                   B        F#  C#
Por mais que hoje, você não esteja entendendo

                D#m                     B
O segredo é confiar, o segredo é descansar
             B                         C#       D#m
Tem sorriso te esperando, quando esse dia raiar

( D#m  C#  B  C# )

F#
Estás sofrendo mas também tá aprendendo né?
 B
Tá machucando mas também tá te ensinando então
         F#                                           C#
Toda promessa tem um tempo de espera, mas Deus já decretou vitória nessa guerra

       D#m                   B
Fica tranquilo, não se desespera
              F#                                            C#
Se foi Deus quem prometeu a promessa está de pé, somente espera
            D#m                B
Mantenha a calma, não perca a fé
        F#                                                    C#
Se teu joelho está no chão,teu inimigo não consegue ficar de pé

           F#                                   C#
Fica tranquilo, Deus está providenciando um sorriso
                                 D#m
Pra aquela noite que você passou aflito
                         B
Esse gemido será substituído por um hino de vitória
          F#
Não ceda, agora
                             C#
Não se limite apenas ao teu sofrimento
                                  D#m
Eu sei exatamente o que estou eu fazendo
                                   B        F#  C#
Por mais que hoje, você não esteja entendendo

           F#                                   C#
Fica tranquilo, Deus está providenciando um sorriso
                                 D#m
Pra aquela noite que você passou aflito
                         B
Esse gemido será substituído por um hino de vitória
          F#
Não ceda, agora
                             C#
Não se limite apenas ao teu sofrimento
                                  D#m
Eu sei exatamente o que estou eu fazendo
                                   B        F#  C#
Por mais que hoje, você não esteja entendendo

                D#m                     B
O segredo é confiar, o segredo é descansar
             B                         C#       D#m
Tem sorriso te esperando, quando esse dia raiar
Acordes para:

    0 comentários

      mostrar mais comentários

      Conseguiu tocar?

      4tocaram1ainda não

      Grave um vídeo tocando Fica Tranquilo e mande pra gente!

      00:00 / 00:00
      outros vídeos desta música
      repetirqualidadeautomática
      Outro vídeos desta música
        00:00 / 00:00
        automática
        OK