Cifra Club

Fica Tranquilo

Kemilly Santos

Cifra: Principal (violão e guitarra)
exibições 384.746
Tom: D#m
[Intro] D#m  B  F#  C#/F#  F#9/A#
        D#m  B  F#9/A#  C#4  C#

E|----------------4/6~~-----|
B|---6-7-6------------------|
G|-8-------8-6-8~-----------|
D|--------------------------|
A|--------------------------|
E|--------------------------|

E|-------------------7~~----|
B|-----6-7-6----------------|
G|-6/8-------8-6-8----------|
D|-----------------9--------|
A|--------------------------|
E|--------------------------|

E|------------9-11-9--------|
B|----9-11-12---------------|
G|-11----------------11~~---|
D|--------------------------|
A|--------------------------|
E|--------------------------|

E|-------6-7-6--------6-7-6-|
B|-----7-------9-7-9~-7-7-7-|
G|-4/6----------------------|
D|--------------------------|
A|--------------------------|
E|--------------------------|

E|--------------------------|
B|---6-7p6-------9b11~~-----|
G|-8-------8-6-8------------|
D|--------------------------|
A|--------------------------|
E|--------------------------|

E|--------------------------|
B|-16-18-18b19r18-16--------|
G|-------------------18-----|
D|--------------------------|
A|--------------------------|
E|--------------------------|

E|-------18b19~~------------|
B|-16\12---------14-14-11---|
G|--------------------------|
D|--------------------------|
A|--------------------------|
E|--------------------------|

E|--------------------------|
B|-11-9-9-7-7-9-7/9~~-------|
G|--------------------------|
D|--------------------------|
A|--------------------------|
E|--------------------------|

   F#                           C#/F
De tempestades e bonanças, não temo mais ondas e ventos
                    D#m                         B
O que pra mim e impossível, pra Deus e só questão de tempo
                   F#                          C#/F
O mar e grande eu sou pequeno, mas Deus não vai me abandonar
                D#m          C#             B
Isso e historia pra eu viver, experiencia pra contar
     F#/A#        G#m      C#4  C#
Isso e Jesus a me moldar

        F#                       F#9/A#
Estás sofrendo mas também tá aprendendo né?
        B
Tá machucando mas também tá te ensinando então
        F#           C#/F       D#m               C#4  C#  A#/D
Toda promessa tem um tempo de espera, mas Deus já decretou vitória nessa guerra

         D#m               B
Fica tranquilo, não se desespera
       F#            C#/F      D#m             C#         A#/D
Se foi Deus quem prometeu a promessa está de pé, somente espera
           D#  C#/F  F#  A#  B
Mantenha a calma, não perca a fé
        F#               D#m                  C#  C#
Se teu joelho está no chão,teu inimigo não consegue ficar de pé

         F#                                  C#/F
Fica tranquilo, Deus está providenciando um sorriso
                                 D#m
Pra aquela noite que você passou aflito
      C#                  B                    C#
O seu gemido será substituído por um hino de vitória
          F#
Não ceda, agora
                            C#/F
Não se limite apenas ao teu sofrimento
       A#/D                  D#m
Deus sabe exatamente o que está fazendo
C#           B                C#       F#        C#/F
Por mais que hoje, você não esteja entendendo

               D#m   C#                B   F#/A#
O segredo é confiar, o segredo é descansar
      G#m         F#        C#/F     D#m
Tem sorriso te esperando, quando esse dia raiar

( D#m  C#  B  F#9/A#  G#m )
( F#  E  C#4  C# )

E|-9-------9-------9--------|
B|--------------------------|
G|---10-11---10-11---10-11--|
D|--------------------------|
A|--------------------------|
E|--------------------------|

E|-9-------9-------9--------|
B|--------------------------|
G|---10-11---10-11---10-11--|
D|--------------------------|
A|--------------------------|
E|--------------------------|

E|-9-------7/9~~------------|
B|---------------9-11-11b12-|
G|---10-11------------------|
D|--------------------------|
A|--------------------------|
E|--------------------------|

E|--------------------------|
B|-11b12r11--9--------------|
G|-------------8~-----------|
D|-----------------9-11-13--|
A|--------------------------|
E|--------------------------|

E|-------------------11-13--|
B|----------11-12-14--------|
G|-10-11-13-----------------|
D|--------------------------|
A|--------------------------|
E|--------------------------|

E|-14----------12-14b16-----|
B|----12-14-16--------------|
G|--------------------------|
D|--------------------------|
A|--------------------------|
E|--------------------------|

E|-14b16~~---------9~~------|
B|---------9-11-12----------|
G|--------------------------|
D|--------------------------|
A|--------------------------|
E|--------------------------|

E|--------------------------|
B|-11b12r11--9----9---------|
G|-------------11---11~~----|
D|--------------------------|
A|--------------------------|
E|--------------------------|

F#                                F#/A#
Estás sofrendo mas também tá aprendendo né?
 B
Tá machucando mas também tá te ensinando então
         F#         C#/F        D#m               C#              A#/D
Toda promessa tem um tempo de espera, mas Deus já decretou vitória nessa guerra

      D#m                   B
Fica tranquilo, não se desespera
       F#            C#/F     D#m                  C#          A#/D
Se foi Deus quem prometeu a promessa está de pé, somente espera
   D#m  C#/F  F#  F#9/A#       B
Mantenha a calma, não perca a fé
       F#/C#               D#m                  C#4  C#
Se teu joelho está no chão,o teu inimigo não consegue ficar de pé

         F#                                  C#/F
Fica tranquilo, Deus está providenciando um sorriso
                                 D#m
Pra aquela noite que você passou aflito
       C#                B                     C#4  C#
O seu gemido será substituído por um hino de vitória
          F#
Não ceda, agora
                            C#/F
Não se limite apenas ao teu sofrimento
      A#/D                  D#m
Deus sabe exatamente o que está fazendo
C#           B                C#        B/D#    C#/F
Por mais que hoje, você não esteja entendendo

     F#                  (G#m  F#)    C#/F
Fica tranquilo, Deus está providenciando um sorriso
                                D#m
Pra aquela noite que você passou aflito
        C#     (B9  Bbm9-/B  B9)     D#m7    (C#9 B6(9)/C# C#9)
O seu gemido será substituído por um hino de vitória
          F#
Não ceda, agora
                            C#/F
Não se limite apenas ao teu sofrimento
          A#/D               D#m
Deus sabe exatamente o que está fazendo
C#           B               C#     F#        C#/F
Por mais que hoje, você não esteja entendendo

                D#m   C#                B   F#9/A#
O segredo é confiar, o segredo é descansar
      G#m         F#          C#/F       D#m  C#  B   F#
Tem sorriso te esperando, quando esse dia raiar

0 comentários

mostrar mais comentários

Conseguiu tocar?

25tocaram26ainda não

Grave um vídeo tocando Fica Tranquilo e mande pra gente!

00:00 / 00:00
outros vídeos desta música
repetirqualidadeAutomático
Outro vídeos desta música
    00:00 / 00:00
    OK