Cifra Club

Aprenda

Swimming Pools

Kendrick Lamar

Cifra: Principal (violão e guitarra)
Tom: G
G

E|------------------------------------------|
B|------------------------------------------|
G|-----------0------------------------------|
D|---------0--------------------------------|
A|-------2----------------------------------|
E|----2-------------------------------------|


Em

E|------------------------------------------|
B|------------------------------------------|
G|---------0--------------------------------|
D|-------2----------------------------------|
A|-----2------------------------------------|
E|---0--------------------------------------|


Bm

E|------------------------------------------|
B|---------3--------------------------------|
G|-------4----------------------------------|
D|-----4------------------------------------|
A|---2--------------------------------------|
E|------------------------------------------|


E|------------------------------------------|
B|---------7--------------------------------|
G|-------7----------------------------------|
D|-----7------------------------------------|
A|---5--------------------------------------|
E|------------------------------------------|
Composição de Kendrick Duckworth / Nikhil Seetharam / Tyler Williams
Colaboração e revisão:
  • André Salgado
2.273 exibições
    • ½ Tom
    • A
    • Bb
    • B
    • C
    • Db
    • D
    • Eb
    • E
    • F
    • F#
    • G
    • Ab
  • Adicionar à lista

    0 comentários

    Mostrar mais comentários

    Conseguiu tocar?

    0 Tocaram 0 Ainda não

    Grave um vídeo tocando Swimming Pools e mande pra gente!

    00:00 / 00:00
    outros vídeos desta música
    repetir qualidade Automático
    Outros vídeos desta música
    00:00 / 00:00
    Automático

    Cifra Club Pro

    Aproveite o Cifra Club com benefícios exclusivos e sem anúncios
    Cifra Club Pro
    Aproveite o Cifra Club com benefícios exclusivos e sem anúncios
    OK