Cifra Club

400 Slag

Kent

Cifra: Principal (violão e guitarra)
Selo Cifra Club: esta cifra foi revisada para atender aos critérios oficiais da nossa Equipe de Qualidade.
tom: Ebm
Intro:

| D#m  F#  |  B    D#m | x4


  D#m       F#     B         D#m    D#m       F#     B         D#m   
E|4-6---4---------|--4-------------|--4---6---------| 6-4-------------|
B|----------------| 4-----4---------|4---------------|------4---------| x6
G|----------------|----------------|----------------|----------------|
D|----------------|----------------|----------------|----------------|
A|----------------|----------------|----------------|----------------|
E|----------------|----------------|----------------|----------------|

Efter två av ovanstående rundor kommer nedanstående slinga in

  D#m       F#     B         D#m    D#m       F#     B         D#m
E|--6-----9-----9-|--7-----6-----6-|--6-----9-----9-|--7-----6-----6-|
B|-------7----7---|-------7----7---|-------7----7---|-------7----7---| x4
G|8---------------| 8---------------|8---------------|8---------8-----|
D|----------------|----------------|----------------|----------------|
A|----------------|----------------|----------------|----------------|
E|----------------|----------------|----------------|----------------|


| D#m  F#  |  B    D#m | x2


D#m   F#         B     C#           D#m    F#    B    D#m
Domen föll på en morgonflight till London
    D#m   F#      B     C#     D#m    F#    B    D#m
Som tysta tunga steg på väg mot dig
D#m   F#                B        C#    D#m    F#    B    D#m
Domen föll trots att du alltid använt kondom
        D#m      F#      B         C#     B
Och med lien på svaj så väntar din gamle vän

C#          D#m               A#m    B
 Och som ni lekte när ni var barn
C#      D#m    F#           B                C#          
 Och du stod givakt med din rygg rak och tog fyrahundra slag


| D#m  F#  |  B    D#m | x4


D#m    F#                 B      C#      D#m    F#    B    D#m
Sömnen kom och du som låg så rätt i tiden
D#m   F#       B     C#       D#m    F#    B    D#m
Domen föll som tårar mot din skärm
D#m    F#         B       C#    D#m    F#    B    D#m
Sömnen kom som en åsikt, högervriden
        D#m        F#          B     C#      B
Men mot dollar och yen så blir döden lätt ett skämt

C#          D#m               A#m    B
 Och som ni som lekte när ni var barn
C#      D#m   F#                 B C#       B
 Du förlorade ditt krig, du står ensam kvar
C#         D#m                 A#m    B
 Och ingen kommer till ditt försvar
C#     D#m    F#           B                   C#         
 Så du står givakt med din rygg så rak och tar fyrahundra slag
Outros vídeos desta música
    3 exibições
      • ½ Tom
      • Am
      • Bbm
      • Bm
      • Cm
      • C#m
      • Dm
      • Ebm
      • Em
      • Fm
      • F#m
      • Gm
      • G#m
    • Adicionar à lista

    Afinação da cifra

    Afinador online

      0 comentários

      Ver todos os comentários

      Entre para o Cifra Club PRO

      Tenha acesso a benefícios exclusivos no App e no Site

      • Chega de anúncios

      • Badges exclusivas

      • Mais recursos no app do Afinador

      • Atendimento Prioritário

      • Aumente seu limite de lista

      • Ajude a produzir mais conteúdo

      Cifra Club Pro

      Aproveite o Cifra Club com benefícios exclusivos e sem anúncios
      Cifra Club Pro
      Aproveite o Cifra Club com benefícios exclusivos e sem anúncios
      Ops (: Contenido disponible sólo en portugués.
      OK