Cifra Club

Aprenda

"Fim"

Kepler

Cifra: Principal (violão e guitarra)
tom: Ab (forma dos acordes no tom de E) Capotraste na 4ª casa
[Intro] E  C  E  C  D 

E|---------------------------------------------|
B|---------------------------------------------|
G|-----0--------------------0------------------|
D|------------0-8--9-8-------------0-8--9-8----|
A|---0-----0--------------0-----0--------------|
E|-0--------------------0----------------------|

  E 
O vento vem
    C 
Pra onde vai?
  G            E 
O meu Oeste deixei pra trás
E      A          C     F# 
Vou em frente com meu cavalo
 E     A       C    G 
Iremos juntos até o fim

 Dm        A7        Dm    A7         
Alguém me olhando na minha frente
Dm   A7               Dm 
Exatamente achei quem era
    A7          Dm      A7         E  C  E  C  E  C  D  G 
O espirito no deserto comigo até o fim

E|---------------------------------------------|
B|---------------------------------------------|
G|-----0--------------------0------------------|
D|------------0-8--9-8-------------0-8--9-8----|
A|---0-----0--------------0-----0--------------|
E|-0--------------------0----------------------|

E   A     C     E       A   G 
Ei aqui estou, achei minha origem
 E        A    Am     E       A     G    E      A          G 
Agora não devo parar, vou sem descansar até que chegue ao “fim”

 E           A          C           G             G             A 
Abecedário, obedecer, cai, chora, come, crescer, achar a luz, enfim corre
     C           A     G      E 
Da a minha mão e descansar na luz
Composição de Lukas
Colaboração e revisão:
  • Lukas Victor
6 exibições
    • ½ Tom
    • A
    • Bb
    • B
    • C
    • Db
    • D
    • Eb
    • E
    • F
    • F#
    • G
    • Ab
  • Adicionar à lista

    0 comentários

    Ver todos os comentários

    Conseguiu tocar?

    0 Tocaram 0 Ainda não

    Grave um vídeo tocando "Fim" e nos envie!

    00:00 / 00:00
    outros vídeos desta música
    repetir qualidade Automático
    Outros vídeos desta música
    00:00 / 00:00
    Automático

    Cifra Club Pro

    Aproveite o Cifra Club com benefícios exclusivos e sem anúncios
    Cifra Club Pro
    Aproveite o Cifra Club com benefícios exclusivos e sem anúncios
    OK