Cifra Club

Dream

Khorus

Cifra: Principal (violão e guitarra)
Selo Cifra Club: esta cifra foi revisada para atender aos critérios oficiais da nossa Equipe de Qualidade.
tom: E
Intro: E  B  C#m  A9

E
 The rain is falling outside
B
 And it reminds me of the moment
C#m
 That you came and wiped all
A9
 The tears from my eyes
E
 I couldn't! hide this felling
B            C#m
 In my heart, no
     A9
 That I
   C#m
 I cried, to have you
B          A9
 Near here whit me

 And to tell you
C#m
 That I
              B
 Always loved you
               A9
 A dream that God made this come true
                 E                B
 This beautiful love came from heaven
                   C#m       A9
 Where there is no flaw and lies
            E
 I hear my heart
           B
 Screaming out
        C#m
 That I love you
A9
 That I love you

Intro: C#m  B  A9  E

Solo;

E|---------------------------------------------------------------------------------|
B|----------14-------12b--------------14--17--16b-------16b--------17--------------|
G|------13------13---------------13------------------------------------------------|
D|--------------------------------------------------------------------------18--18-|
A|---------------------------------------------------------------------------------|

E|---------------------------------------------------------------------------------|
B|-------------------------------------------------------------------14------12----|
G|----16--16---------------9-8-9-8-6-4---11b--11b-----11-13-13------13-------------|
D|--------------16--16-------------------------------------------------------------|
A|---------------------------------------------------------------------------------|
E|---------------------------------------------------------------------------------|

E|------------------------------12-------------------------------------------------|
B|-------8b---------------14-------14-12----------12b-------14--17--13b--13b-------|
G|--13b-------11-13-13-------------------14-12---------13--------------------------|
D|---------------------------------------------------------------------------------|
A|---------------------------------------------------------------------------------|
E|---------------------------------------------------------------------------------|
00:00 / 00:00
Outros vídeos desta música
Repetir
Outros vídeos desta música
48.157 exibições
    • ½ Tom
    • A
    • Bb
    • B
    • C
    • Db
    • D
    • Eb
    • E
    • F
    • F#
    • G
    • Ab
  • Adicionar à lista

Afinação da cifra

Afinador online

    0 comentários

    Ver todos os comentários

    Entre para o Cifra Club PRO

    Tenha acesso a benefícios exclusivos no App e no Site

    • Chega de anúncios

    • Mais recursos no app do Afinador

    • Atendimento Prioritário

    • Aumente seu limite de lista

    • Ajude a produzir mais conteúdo

    00:00 / 00:00

    Cifra Club Pro

    Aproveite o Cifra Club com benefícios exclusivos e sem anúncios
    Cifra Club Pro
    Aproveite o Cifra Club com benefícios exclusivos e sem anúncios
    OK