Cifra Club

Jonas

Khorus

Cifra: Principal (violão e guitarra)
Selo Cifra Club: esta cifra foi revisada para atender aos critérios oficiais da nossa Equipe de Qualidade.
tom: G
Intro 2x: Em  C  G  B7
E|--------------------------------------------------|------------------------------------|
B|---------------------------------10-12--10--------|------------------------------------|
G|--12--11--9-11--------9----11-12-----------12--11-|-12--11--9-11---------9--------9----|
D|---------------9---11---9-------------------------|--------------9--9-11---9--11----9--|
A|--------------------------------------------------|------------------------------------|
E|--------------------------------------------------|------------------------------------|

Em          C
  Tentou fugir da voz de Deus
Em        C
  Se enganou ao se esconder
Em                     C9
  E num escuro de um porão
                   Em
Achou que era solução
           C        Em
Pingos de chuva a cair
           C7M        Em
E o vento forte a soprar
         D9           C9
E num escuro de um porão
                   Em
Achou que era solução (1ª vez - 2x)

 ( Em  C7M  Em  D9 )
E|---------------|---------------|
B|---------------|---------------|
G|--4--2--4--5-5-|--4--2--4--2-2-|
D|---------------|---------------|
A|---------------|---------------|
E|---------------|---------------|

(repete tudo)

                     Em
Achou que tudo ia acabar (Na 2ª vez)
          Em                     C
E o desespero apareceu muitos diziam não sou eu
          G                        B7
Jogue no mar o do porão, que não ouviu a voz de Deus.
         Em                     C
E o desespero apareceu muitos diziam não sou eu
          G                        B7           Em
Jogue no mar o do porão, que não ouviu a voz de Deus.

Em  C7M       Em                 C7M                          Em
  e jogado no mar tragado foi (O meu Deus agora o que será de mim?
            C7M                  Em
Estou num ventre sem saída o que vou fazer?
      C7M                       Em
Me socorre estou em trevas não quero morrer)

        Em                       C
E o mistério estava perto de se desvendar
         G                    B7
Tem que sair do porão e pela água passar,
              Em              C
Para que os planos de Deus pudesse entender
      G                            B7            (2x)
Das entranhas de um ser vivo tive que
          Em
De novo nascer...

( Em  C  G  B7 )
Saia do porão...pra nascer de novo
00:00 / 00:00
Outros vídeos desta música
Repetir
Outros vídeos desta música
69.943 exibições
    • ½ Tom
    • A
    • Bb
    • B
    • C
    • Db
    • D
    • Eb
    • E
    • F
    • F#
    • G
    • Ab
  • Adicionar à lista

Afinação da cifra

Afinador online

    0 comentários

    Ver todos os comentários

    Entre para o Cifra Club PRO

    Tenha acesso a benefícios exclusivos no App e no Site

    • Chega de anúncios

    • Mais recursos no app do Afinador

    • Atendimento Prioritário

    • Aumente seu limite de lista

    • Ajude a produzir mais conteúdo

    00:00 / 00:00

    Cifra Club Pro

    Aproveite o Cifra Club com benefícios exclusivos e sem anúncios
    Cifra Club Pro
    Aproveite o Cifra Club com benefícios exclusivos e sem anúncios
    OK