Cifra Club

Amanhã É 23

Kid Abelha

Cifra: Principal (violão e guitarra)
exibições 366.101
Tom: C
[Intro]  Am  Em  Dm  F

Am           Em
As entradas do meu rosto
Dm            F    G
Eos meus cabelos brancos
Am          Em
Aparecem a cada ano
 Dm                F    G
No final do mês de agosto
 Am7
Há vinte anos, você nasceu
Em
Ainda guardo o retrato antigo
 Dm
Mas agora que você cresceu
 F             G
Não se parece nada comigo
Am
Esse seu ar de tristeza
Em
Alimenta a minha dor
 Dm
Tua pose de princesa
 F         G
De onde você tirou
C       F       C
Amanhã, amanhã, amanhã
F       C
Amanhã, amanhã é 23
 F
São 8 dias para o fim do mês
 C
Faz tanto tempo que eu não te vejo
  F
Queria teu beijo outra vez

[Solo]

      Am            Em          Dm         F     G            Am
E|-----------------------------------------------------------------------------|
B|---8-5---8-5-8----8---8-------8-8---8--5-5h6p5-------------------------------|
G|-------5--------7---7---7---5-----5------------7-5-7/9-7-5--2/4--------------|
D|-----------------------------------------------------------------------------|
A|-----------------------------------------------------------------------------|
E|-----------------------------------------------------------------------------|
      Em             Dm        F       G                C
E|----5---------5----------------------7---5---3---1---------------------------|
B|--5---5-8-8-5---5-8--6p5-6p5-------5---3---1---3-----------------------------|
G|-----------------------------7-5---------------------------------------------|
D|-----------------------------------------------------------------------------|
A|-----------------------------------------------------------------------------|
E|-----------------------------------------------------------------------------|

C       F       C
Amanhã, amanhã, amanhã
F       C
Amanhã, amanhã é 23
 F
São 8 dias para o fim do mês
 C
Faz tanto tempo que eu não te vejo
  F
Queria teu beijo outra vez
Acordes para:
    Composição: George Israel / Paula TollerColaboração e revisão:
    • Marcos Paulo
    • Matheus Carvalho
    • Abraão Neves

    0 comentários

      mostrar mais comentários

      Conseguiu tocar?

      44tocaram1ainda não

      Grave um vídeo tocando Amanhã É 23 e mande pra gente!

      00:00 / 00:00
      outros vídeos desta música
      repetirqualidadeAutomático
      Outro vídeos desta música
        00:00 / 00:00
        OK