Cifra Club

Maio

Kid Abelha

Cifra: Principal
exibições 175.678
Tom: C
[Intro]

E|------------10-8-7-------------------------------------10----|
A|-----10-9-7--------------------10-9---9-10-9-7---7-9-7-------|
D|-9-7----------------9-7-10-9-7-------------------------------|
G|-------------------------------------------------------------|
B|-------------------------------------------------------------|
E|-------------------------------------------------------------|

Que somos nós afinal...  longe demais

E|---------------------|-------------------|
A|---------------------|-------------------|
D|-----9-------9-------|-------------------|
G|-9-------9-------9---|---------------7-7-|
B|---------------------|--8~-8-7-7-5-5-----|
E|---------------------|-------------------|

É hora de se mover

E|-------------------------------------------------------------|
A|-------------------------------------------------------------|
D|--------------------------9----------------------------------|
G|-9---------9----------9------9--9-7-9-7--------------7-------|
B|---12-10-----12-10---------------------------8-7-5-7---------|
E|-------------------10----------------------------------------|

Eu preciso de alguém maio

E|-------------------------|--------------------|
A|-------------------------|--------------------|
D|-------------------------|--------------------|
G|-7-5-7-5-----7-5-7-5-7---|----------------7---|
B|-----------------------5-|--------7-5-5-7-----|
E|-------------------------|-5-5-7--------------|

Estamos longe demais longe demais...  já está no final

E|-------------------|---------------|----------------------|
A|-7-----------7-----|---------------|----------------------|
D|---5-7---7-5---7---|---------------|----------------------|
G|-------4-----------|-7-------------|---------7------------|
B|-------------------|---5-----------|-8-7-5-5--------------|
E|-------------------|-----5-5-5-5-7-|----------------------|

É hora de se mover

E|---------------------------------------------------------------|
A|-5-7-------7-5-5-7-------7-5-5-7----------7--------------------|
D|-----5-7-5---------5-7-5---------5-8-7--7---5------------------|
G|---------------------------------------------------------------|
B|---------------------------------------------------------12-10-|
E|-----------------------------------------------12~-12-10-------|

Eu preciso...  qual eu não seja... eu preciso de álguem
E|-------------|-------------------|--------------------|
A|-------------|-------------------|--------------------|
D|-------------|-------------------|--------------------|
G|-------------|-------------7-----|-------------7------|
B|-10-10-8-7---|-10-10-8-7-8-------|-10-10-8-7-8--------|
E|-------------|-------------------|--------------------|

Maio...
E|---------------------------------------------------------------
A|------------------------------------------8-7-8-7-8-7-5-3-5----
D|------------------------------------------------------------5--
G|-------------------------7-7---------7-7-----------------------
B|-----------------8-8---5-----8-8---5---------------------------
E|-12-10----12-10------5-----------5-----------------------------

  G            D
 Maio já está no final
     C               Am7
 O que somos nós afinal
     C                Am7
 Se já não nos vemos mais
    C             Em7
 Estamos longe demais
          D
 Longe demais
  G            D
 Maio já está no final
    C            Am7
 É hora de se mover
      C               Am7
 Pra viver mil vezes mais
     C
 Esqueça os meses
     Am7            Em7
 Esqueça os seus finais
               D9
 Esqueça os finais

      Am7          D7
 Eu preciso de alguém
         Am7          D7
 Sem o qual eu passe mal
         C      G/B          D
 Sem o qual eu não seja ninguém
        Am7        D
 Eu preciso de alguém

  G
 Maio, uh uh, Maio, uh uh
 Maio, uh uh, Maio, uh uh

 ( F Am7  F Am7  F Am7 G )
Acordes para:
    Composição: George Israel / Paula TollerColaboração e revisão:
    • Marcos Paulo

    0 comentários

      mostrar mais comentários

      Conseguiu tocar?

      8tocaram0ainda não

      Grave um vídeo tocando Maio e mande pra gente!

      00:00 / 00:00
      outros vídeos desta música
      repetirqualidadeautomática
      Outro vídeos desta música
        00:00 / 00:00
        automática
        OK