Cifra Club

Aprenda

Crybaby

Kill Hannah

Cifra: Principal (violão e guitarra)
tom: F
intro
E|---8-8-8-8----------8-8-8-8----------8-8-8-8---------5-5-5-5-6-6-6-6-------------|
B|------------8-8-8-8----------8-8-8-8---------8-8-8-8-----------------------------|
G|---------------------------------------------------------------------------------|
D|----------------------------------------------------------------------    x5-----|
A|---------------------------------------------------------------------------------|
E|---------------------------------------------------------------------------------|

verse
Note count not excact,
Also, this is palm mute, and not very loud either

E|--------------------------------------------------------------|
B|--------------------------------------------------------------|
G|--------------------------------------------------------------|
D|---5555555555555555555------------------------------     x4---|
A|---3333333333333333333-33333333333333333----------------------|
E|--------------------------11111111111111111-------------------|

interlude
"oh la la la la"

E|---8-8-8-8----------8-8-8-8----------8-8-8-8---------5-5-5-5-6-6-6-6-------------|
B|------------8-8-8-8----------8-8-8-8---------8-8-8-8-----------------------------|
G|---------------------------------------------------------------------------------|
D|----------------------------------------------------------------------    x2-----|
A|---------------------------------------------------------------------------------|
E|---------------------------------------------------------------------------------|

verse
Note count not excact,
Also, this is palm mute, and not very loud either

E|------------------------------------------------------------|
B|------------------------------------------------------------|
G|------------------------------------------------------------|
D|---5555555555555555555------------------------------     x2-|
A|---3333333333333333333-33333333333333333--------------------|
E|--------------------------11111111111111111-----------------|

chorus
Hold the notes, and then play the higher note aswell
"she's my cry-i-bay-bee"
E|--------------------------------------------------------|
B|--------------------------------------------------------|
G|------9------7----------------9-----7-------------------|
D|---------------------------------------------77777------|
A|---7-----5-----33333333---7-----5----33333-55555-7---5--|
E|---5-----3-----11111111---5-----3----11111--------5---3-|

interlude
"oh la la la la"

E|---8-8-8-8----------8-8-8-8----------8-8-8-8---------5-5-5-5-6-6-6-6-------------|
B|------------8-8-8-8----------8-8-8-8---------8-8-8-8-----------------------------|
G|---------------------------------------------------------------------------------|
D|----------------------------------------------------------------------    x2-----|
A|---------------------------------------------------------------------------------|
E|---------------------------------------------------------------------------------|

bridge
"oh la la la la"
E|--------------------------------------------------------------------------|
B|--------------------------------------------------------------------------|
G|--------------------------------------------------------------------------|
D|--5-55-55-55-5-----------------    x5-------------------------------------|
A|--3-33-33-33-3--3-33-33-33-3---------3333333333333333333333---------------|
E|-----------------1-11-11-11-1---------11111111111111111111111-------------|

chorus/outro
Hold the notes, and then play the higher note aswell
"she's my cry-i-bay-bee"
E|-----------------------------------------------------------------------------------------------|
B|-----------------------------------------------------------------------------------------------|
G|-----(9)----(7)--------------(9)----(7)----------------------(9)-(9)---(9)--(9)----(7)----(5)--|
D|---------------------------------------------77777--------777777777777777777-------------------|
A|---7-----5-----33333333---7-----5----33333-55555-77777-555555555555555555--9-------------------|
E|---5-----3-----11111111---5-----3----11111--------55555-----------------------8----------------|
Compositor não encontrado.
244 exibições
    • ½ Tom
    • A
    • Bb
    • B
    • C
    • Db
    • D
    • Eb
    • E
    • F
    • F#
    • G
    • Ab
  • Adicionar à lista

    0 comentários

    Ver todos os comentários

    Conseguiu tocar?

    0 Tocaram 0 Ainda não

    Grave um vídeo tocando Crybaby e nos envie!

    00:00 / 00:00
    Outros vídeos desta música
    Repetir Qualidade Automático
    Outros vídeos desta música
    00:00 / 00:00
    Automático

    Cifra Club Pro

    Aproveite o Cifra Club com benefícios exclusivos e sem anúncios
    Cifra Club Pro
    Aproveite o Cifra Club com benefícios exclusivos e sem anúncios
    OK