Cifra Club

Like A Bitch

Kill The Noise

Cifra: Principal (violão e guitarra)
Selo Cifra Club: esta cifra foi revisada para atender aos critérios oficiais da nossa Equipe de Qualidade.
tom: Fm
[Intro]
E|-------|--------------------------------------|---------------------11--9--8~~--|
B|-------|------------------13-12~~-------------|------------------13-------------|
G|--1/10-|-10--10--10-12-13--------12--13\-10-9-|-10--10--10-12-13------10-10-----|
D|-------|-10--10-------------------------------|-10--10--------------------------|
A|-------|--------------------------------------|---------------------------------|
E|-------|--------------------------------------|---------------------------------|

E|--------------------------------------|-----------------|
B|------------------13-12~~-------------|-----------------|
G|-10--10--10-12-13--------12--13\-10-9-|-9--9--10~~\-----|
D|-11--11-------------------------------|-9--9------------|
A|--------------------------------------|-----------------|
E|--------------------------------------|-----------------|


************************************

| /    Slide up
| \    Slide down
| ~    Vibrato
Outros vídeos desta música
    2 exibições
      • ½ Tom
      • Am
      • Bbm
      • Bm
      • Cm
      • C#m
      • Dm
      • Ebm
      • Em
      • Fm
      • F#m
      • Gm
      • G#m
    • Adicionar à lista

    Afinação da cifra

    Afinador online

      0 comentários

      Ver todos os comentários

      Entre para o Cifra Club PRO

      Tenha acesso a benefícios exclusivos no App e no Site

      • Chega de anúncios

      • Badges exclusivas

      • Mais recursos no app do Afinador

      • Atendimento Prioritário

      • Aumente seu limite de lista

      • Ajude a produzir mais conteúdo

      Cifra Club Pro

      Aproveite o Cifra Club com benefícios exclusivos e sem anúncios
      Cifra Club Pro
      Aproveite o Cifra Club com benefícios exclusivos e sem anúncios
      OK