Cifra Club

11:11

TAEYEON

Cifra: Principal (violão e guitarra)
tom: Bb (forma dos acordes no tom de G) Capotraste na 3ª casa
[Intro/Verse/Chorus]
          Em7     D      Cadd9  G/B    Em7 D   Cadd9  G/B    D/F#    Bm7
E|--------3-----2--------0------------3--2-----0----------------------------|
B|--------3-----3--------3-----3------3--3-----3-----3-----3--------3-------|   5x
G|--------0-----2--------0-----0------0--2-----0-----0-----2--2-----2-------| 
D|---0h2--------0--------------0------2--0-----------0-----0--------0-------|
A|-----------x-----x---3----x--2--x---------x--3--x--2--x--------x--2-------|
E|-----------x-----x--------x-----x---------x-----x-----x--2-----x----------|

It's 11:11
Oneuri han kani chae an nameun geureon sigan
Uri sowoneul bilmyeo utdeon geu sigan
Byeol ge da neol tteooreuge haji
Ne mam kkeutjarakcheoreom chagaun baram
Changeul yeolmyeon ontong nega bureowa
I sigani jeonbu jinago namyeon
Ibyeori kkeutna isseulkka yeah
Neol da ijeosseulkka

[Pre-chorus]
     Cadd9                D/F#       G/B
E|--------------------------------------------------------------------------|
B|---3-----------3-------3--3------3--3-------------------------------------|   x3
G|---0-----------0-------2--2------0--0-------------------------------------|
D|---2-------0h2---------0--0------0--0-------------------------------------|
A|-3----x--3--------x----------x---------x----------------------------------|
E|------x-----------x----2-----x---3-----x----------------------------------|

     Am7        G/B  Cadd9   D
E|-------------------0-----2------------------------------------------------|
B|--1----------3-----3-----3------------------------------------------------|
G|--0----------0-----0-----2------------------------------------------------|
D|--2----------0-----------0------------------------------------------------|
A|--0------x---2--x--3--x---------------------------------------------------|
E|---------x------x-----x---------------------------------------------------|

Modeun ge jaril chajaseo tteonagago
Neon nae modeun geol gajgoseo tteonado
Nae mameun sigye sogui du baneulcheoreom
Gateun goseul dugo maemdolgiman hae

[Intro/Verse/Chorus]
          Em7     D      Cadd9  G/B    Em7 D   Cadd9  G/B    D/F#    Bm7
E|--------3-----2--------0------------3--2-----0----------------------------|
B|--------3-----3--------3-----3------3--3-----3-----3-----3--------3-------|   x4
G|--------0-----2--------0-----0------0--2-----0-----0-----2--2-----2-------| 
D|---0h2--------0--------------0------2--0-----------0-----0--------0-------|
A|-----------x-----x---3----x--2--x---------x--3--x--2--x--------x--2-------|
E|-----------x-----x--------x-----x---------x-----x-----x--2-----x----------|

Na na na na na na na
Na na na na na oh ooh
Na na na na na na na
I believe I will be over you

Dallyeok ane itneun
Orae jeone yaksokhaetdeon myeot worui myeochil
Neoegen da ijhyeojyeo isseotdamyeon
Naega jiwoyaji mwo
Jinago namyeon byeol geo anigeyji mwo

[Pre-chorus]
     Cadd9                D/F#       G/B
E|--------------------------------------------------------------------------|
B|---3-----------3-------3--3------3--3-------------------------------------|   x3
G|---0-----------0-------2--2------0--0-------------------------------------|
D|---2-------0h2---------0--0------0--0-------------------------------------|
A|-3----x--3--------x----------x---------x----------------------------------|
E|------x-----------x----2-----x---3-----x----------------------------------|

     Am7        G/B  Cadd9   D
E|-------------------0-----2------------------------------------------------|
B|--1----------3-----3-----3------------------------------------------------|
G|--0----------0-----0-----2------------------------------------------------|
D|--2----------0-----------0------------------------------------------------|
A|--0------x---2--x--3--x---------------------------------------------------|
E|---------x------x-----x---------------------------------------------------|

Modeun ge jaril chajaseo tteonagago
Neon nae modeun geol gajgoseo tteonado
Nae mameun sigye sogui du baneulcheoreom
Gateun goseul dugo maemdolgiman hae

[Intro/Verse/Chorus]
          Em7     D      Cadd9  G/B    Em7 D   Cadd9  G/B    D/F#    Bm7
E|--------3-----2--------0------------3--2-----0----------------------------|
B|--------3-----3--------3-----3------3--3-----3-----3-----3--------3-------|   x2
G|--------0-----2--------0-----0------0--2-----0-----0-----2--2-----2-------| 
D|---0h2--------0--------------0------2--0-----------0-----0--------0-------|
A|-----------x-----x---3----x--2--x---------x--3--x--2--x--------x--2-------|
E|-----------x-----x--------x-----x---------x-----x-----x--2-----x----------|

Na na na na na na na
Na na na na na oh ooh
Na na na na na na na
I believe I will be over you

[Bridge]
      Cadd9  G/B      Em7    D
E|----0---------------3----2------------------------------------------------|    
B|----3-----3---------3----3------------------------------------------------|   x3
G|----0-----0---------0----2------------------------------------------------|
D|----------0-----0h2------0------------------------------------------------|
A|--3----x--2--x--------x-----x---------------------------------------------|
E|-------x-----x--------x-----x---------------------------------------------|

      Am7      G/B  Cadd9   D
E|------------------0-----2-------------------------------------------------|
B|--1~--------3-----3-----3-------------------------------------------------|
G|--0~--------0-----0-----2-------------------------------------------------|
D|--2~--------0-----------0-------------------------------------------------|
A|--0~-----x--2--x--3--x----------------------------------------------------|
E|---------x-----x-----x--------x---x---x---x-------------------------------|

Gyejeol teume jamsi pineun naseon kkocheoreom
Haru teume geollyeo itneun saebyeok byeolcheoreom
I modeun geon eonjenganeun da jinagago malgetji

[Pre-chorus]
     Cadd9                D/F#       G/B
E|--------------------------------------------------------------------------|
B|---3-----------3-------3--3------3--3-------------------------------------|   x3 
G|---0-----------0-------2--2------0--0-------------------------------------|
D|---2-------0h2---------0--0------0--0-------------------------------------|
A|-3----x--3--------x----------x---------x----------------------------------|
E|------x-----------x----2-----x---3-----x----------------------------------|

     Am7        G/B  Cadd9   D
E|-------------------0-----2------------------------------------------------|
B|--1----------3-----3-----3------------------------------------------------|
G|--0----------0-----0-----2------------------------------------------------|
D|--2----------0-----------0------------------------------------------------|
A|--0------x---2--x--3--x---------------------------------------------------|
E|---------x------x-----x---------------------------------------------------|

Modeun ge jaril chajaseo doraogo
Naega amu il eoptneun deusi utge doemyeon
Neoui ireum han beonjjeum bureuneun ge
Jigeumcheoreom apeuji anheul geoya

[Intro/Verse/Chorus]
          Em7     D      Cadd9  G/B    Em7 D   Cadd9  G/B    D/F#    Bm7
E|--------3-----2--------0------------3--2-----0----------------------------|
B|--------3-----3--------3-----3------3--3-----3-----3-----3--------3-------|   x4
G|--------0-----2--------0-----0------0--2-----0-----0-----2--2-----2-------| 
D|---0h2--------0--------------0------2--0-----------0-----0--------0-------|
A|-----------x-----x---3----x--2--x---------x--3--x--2--x--------x--2-------|
E|-----------x-----x--------x-----x---------x-----x-----x--2-----x----------|

Na na na na na na na
Na na na na na oh ooh
Na na na na na na na
I believe I will be over you

Na na na na na na na
Na na na na na oh ooh
Na na na na na na na
I believe I will be over you
00:00 / 00:00
Outros vídeos desta música
Repetir
Outros vídeos desta música
Composição de Chelcee Grimes / Christian Vinten / Kim Eana
Colaboração e revisão:
  • Luis Machado
3.058 exibições
    • ½ Tom
    • A
    • Bb
    • B
    • C
    • Db
    • D
    • Eb
    • E
    • F
    • F#
    • G
    • Ab
  • Adicionar à lista

    0 comentários

    Ver todos os comentários

    Conseguiu tocar?

    0 Tocaram 3 Ainda não

    Grave um vídeo tocando 11:11 e nos envie!

    Entre para oCifra Club PRO

    Tenha acesso a benefícios exclusivos no App e no Site

    • Chega de anúncios

    • Prioridade de compra em lançamentos

    • Mais recursos no app do Afinador

    • Atendimento Prioritário

    • Descontos nos produtos Cifra Club

    • Ajude a produzir mais conteúdo

    00:00 / 00:00

    Cifra Club Pro

    Aproveite o Cifra Club com benefícios exclusivos e sem anúncios
    Cifra Club Pro
    Aproveite o Cifra Club com benefícios exclusivos e sem anúncios
    OK