Cifra Club

Ohio

King Princess

Cifra: Principal (violão e guitarra)
Selo Cifra Club: esta cifra foi revisada para atender aos critérios oficiais da nossa Equipe de Qualidade.
tom: Em
C:      Cm:      G:       Gsus4:
E|8---| e|8---|  e|3---|  e|3---|
B|8---| B|8---|  B|3---|  B|3---|
G|9---| G|8---|  G|4---|  G|5---|
D|10--| D|10--|  D|5---|  D|3---|
A|10--| A|10--|  A|5---|  A|5---|
E|8---| E|8---|  E|3---|  E|3---|

[Intro]
C Cm
G Gsus4 G x3

[Verse]
C        Cm         G Gsus4 G
How's it been in Ohio?
       C
Do you think about me
Cm                  G Gsus4 G
When you're going home?

[Pre-Chorus]
       C                 Cm
'Cause I've been getting rich

E|-------3------3--------------------|
B|-------3------3--------------------|
G|-------4------4--------0-----------|
D|-------5------5--------2-----------|
A|-------5------5--------2-----------|
E|-------3------2--------0-----------|

         G      F#sus4   Em
But everything I love is broke

[Refrain]
          C           Cm            G Gsus4 G
So what's good? Is it me or is it you?

[Verse 2]
C       Cm                G Gsus4 G
Are you getting what you need?
      C                Cm
Is it hard to roll the j without me
G               Gsus4 G
Laying by your knees

[Pre-Chorus 2]
       C                 Cm
'Cause I've been getting paid but

E|-------3--------3--------------------|
B|-------3--------3--------------------|
G|-------4--------4--------0-----------|
D|-------5--------5--------2-----------|
A|-------5--------5--------2-----------|
E|-------3--------2--------0-----------|

         G        F#sus4   Em
My best girl ain't next to me

[Refrain]
          C           Cm            G Gsus4 G
So what's good? Is it me or is it you?
          C           Cm            G Gsus4 G
So what's good? Is it me or is it you?

[Pre-Chorus 3]
       C            Cm
'Cause when I think about it

E|--------3------3-----------------|
B|--------3------3-----------------|
G|--------4------4-----0-----------|
D|--------5------5-----2-----------|
A|--------5------5-----2-----------|
E|--------3------2-----0-----------|

          G     F#sus4 Em
Oh, you're all I wanna do

[Refrain]
          C           Cm
So what's good? Is it me or is it...
E|---------------------------|
B|---------------------------|
G|---------------------------|
D|---------------------------|
A|---------------------------|
E|--3------------------------|

[Instrumental Break]
    d u d u d u d u     d    d            d  u  d  u  d  u  d  u     d    d
E|--5-5-5-5-5-5-5-5---x-7-----------------8--8--8--8--8--8--8--8---x-7---------|
B|--5-5-5-5-5-5-5-5---x-7-----------------8--8--8--8--8--8--8--8---x-7----x----|
G|--6-6-6-6-6-6-6-6---x-7----0------------9--9--9--9--9--9--9--9---x-7----x----|
D|--7-7-7-7-7-7-7-7---x-9----2------------10-10-10-10-10-10-10-10--x-7----6----|
A|--7-7-7-7-7-7-7-7---x-9----2------------10-10-10-10-10-10-10-10--x-7----7----|
E|--5-5-5-5-5-5-5-5---x-7----0------------8--8--8--8--8--8--8--8---x-7----0----| x2

    A                  Bm    Em           C                          Bm7  E
A Bm Em
      Come here and I’ll show you what I like about it
C Bm7 E
      And I don’t know whats best for me, but
A Bm Em
      Come here and I’ll show you what I like about it
C Bm7 E
      And I don’t know where you’ll be, babe
A Bm Em
      Come here and I’ll show you what I like about…

    d u d u d u d u     d    d            d  u  d  u  d  u  d  u     d    d
E|--5-5-5-5-5-5-5-5---x-7-----------------8--8--8--8--8--8--8--8---x-7---------|
B|--5-5-5-5-5-5-5-5---x-7-----------------8--8--8--8--8--8--8--8---x-7----x----|
G|--6-6-6-6-6-6-6-6---x-7----0------------9--9--9--9--9--9--9--9---x-7----x----|
D|--7-7-7-7-7-7-7-7---x-9----2------------10-10-10-10-10-10-10-10--x-7----6----|
A|--7-7-7-7-7-7-7-7---x-9----2------------10-10-10-10-10-10-10-10--x-7----7----|
E|--5-5-5-5-5-5-5-5---x-7----0------------8--8--8--8--8--8--8--8---x-7----0----| x2
    A                  Bm    Em           C                          Bm7  E

[Outro]
  A* Bm* Em*
Oh,
                    C* Bm7* E*
Is it me or is it you?
                    A* Bm* Em*
Is it me or is it...
                    C* Bm7* E*
Is it me or is it you?

[Optional Continuation]

[Instrumental Break]
    d u d u d u d u     d    d            d  u  d  u  d  u  d  u     d    d
E|--5-5-5-5-5-5-5-5---x-7-----------------8--8--8--8--8--8--8--8---x-7---------|
B|--5-5-5-5-5-5-5-5---x-7-----------------8--8--8--8--8--8--8--8---x-7----x----|
G|--6-6-6-6-6-6-6-6---x-7----0------------9--9--9--9--9--9--9--9---x-7----x----|
D|--7-7-7-7-7-7-7-7---x-9----2------------10-10-10-10-10-10-10-10--x-7----6----|
A|--7-7-7-7-7-7-7-7---x-9----2------------10-10-10-10-10-10-10-10--x-7----7----|
E|--5-5-5-5-5-5-5-5---x-7----0------------8--8--8--8--8--8--8--8---x-7----0----| x2
    A                  Bm    Em           C                          Bm7  E

A Bm Em
      Come here and I’ll show you what I like about it

    d u d u d u d u     d    d            d  u  d  u  d  u  d  u     d    d
E|--5-5-5-5-5-5-5-5---x-7-----------------8--8--8--8--8--8--8--8---x-7---------|
B|--5-5-5-5-5-5-5-5---x-7-----------------8--8--8--8--8--8--8--8---x-7----x----|
G|--6-6-6-6-6-6-6-6---x-7----0------------9--9--9--9--9--9--9--9---x-7----x----|
D|--7-7-7-7-7-7-7-7---x-9----2------------10-10-10-10-10-10-10-10--x-7----6----|
A|--7-7-7-7-7-7-7-7---x-9----2------------10-10-10-10-10-10-10-10--x-7----7----|
E|--5-5-5-5-5-5-5-5---x-7----0------------8--8--8--8--8--8--8--8---x-7----0----| x2
    A                  Bm    Em           C                          Bm7  E

[Outro]
  A* Bm* Em*
Oh,
                    C* Bm7* E*
Is it me or is it you?
                    A* Bm* Em*
Is it me or is it...
                    C* Bm7* E*
Is it me or is it you?
Outros vídeos desta música
    97 exibições
      • ½ Tom
      • Am
      • Bbm
      • Bm
      • Cm
      • C#m
      • Dm
      • Ebm
      • Em
      • Fm
      • F#m
      • Gm
      • G#m
    • Adicionar à lista

    Afinação da cifra

    Afinador online

      0 comentários

      Ver todos os comentários

      Conseguiu tocar?

      0Tocaram0Ainda não

      Grave um vídeo tocando Ohio e nos envie!

      Entre para o Cifra Club PRO

      Tenha acesso a benefícios exclusivos no App e no Site

      • Chega de anúncios

      • Badges exclusivas

      • Mais recursos no app do Afinador

      • Atendimento Prioritário

      • Aumente seu limite de lista

      • Ajude a produzir mais conteúdo

      Cifra Club Pro

      Aproveite o Cifra Club com benefícios exclusivos e sem anúncios
      Cifra Club Pro
      Aproveite o Cifra Club com benefícios exclusivos e sem anúncios
      Ops (: Contenido disponible sólo en portugués.
      OK