Cifra Club

Main Menu

Kingdom Hearts

Cifra: Principal (violão e guitarra)
tom: F
E|---8-8p-------10-10p8-8---------10-10p11-11p10-10p15-13p15/13-11p11/10-10/8-8/6-6----
B|------8-8p--------------8-8p---------------------------------------------------------
G|---------10-10p------------10-10p----------------------------------------------------
D|-------------------------------------------------------------------------------------
A|-------------------------------------------------------------------------------------
E|-------------------------------------------------------------------------------------

E|---8-8p-------10-10p8-8---------10-10p11-11p10-10p15-13p15/13-11p11/10-10/8-8/6-6----
B|------8-8p--------------8-8p---------------------------------------------------------
G|---------10-10p------------10-10p----------------------------------------------------
D|-------------------------------------------------------------------------------------
A|-------------------------------------------------------------------------------------
E|-------------------------------------------------------------------------------------

E|---8-8p-------10-10p8-8---------10-10p11-11p10-10p15-13p15/13-11p11/10-10/8-8/6-6----
B|------8-8p--------------8-8p---------------------------------------------------------
G|---------10-10p------------10-10p----------------------------------------------------
D|-------------------------------------------------------------------------------------
A|-------------------------------------------------------------------------------------
E|-------------------------------------------------------------------------------------

(repete tudo)
00:00 / 00:00
Outros vídeos desta música
Repetir
Outros vídeos desta música
Compositor não encontrado.
Colaboração e revisão:
  • mauricio souza
2.924 exibições
    • ½ Tom
    • A
    • Bb
    • B
    • C
    • Db
    • D
    • Eb
    • E
    • F
    • F#
    • G
    • Ab
  • Adicionar à lista

    0 comentários

    Ver todos os comentários

    Conseguiu tocar?

    0 Tocaram 0 Ainda não

    Grave um vídeo tocando Main Menu e nos envie!

    Entre para oCifra Club PRO

    Tenha acesso a benefícios exclusivos no App e no Site

    • Chega de anúncios

    • Prioridade de compra em lançamentos

    • Mais recursos no app do Afinador

    • Atendimento Prioritário

    • Descontos nos produtos Cifra Club

    • Ajude a produzir mais conteúdo

    00:00 / 00:00

    Cifra Club Pro

    Aproveite o Cifra Club com benefícios exclusivos e sem anúncios
    Cifra Club Pro
    Aproveite o Cifra Club com benefícios exclusivos e sem anúncios
    OK