Cifra Club

Could It Be So

Kingston Wall

Cifra: Principal (violão e guitarra)
Selo Cifra Club: esta cifra foi revisada para atender aos critérios oficiais da nossa Equipe de Qualidade.
tom: E
 INTRO solo :

E|------| I------------------------I-------------9H-11-11-11-11-11-P-I
B|------| I----9H10-9H10-1H10-9----I-9H10-9--------------------------I
G|----9-| I-11------------------11-I--------9------------------------I
D|-11---| I------------------------I----------11---------------------I
A|------| I------------------------I---------------------------------I
E|------| I------------------------I---------------------------------I

E|-9--------11| B12-12-12-12-BD-11B12-9H11P9-------------------------I
B|---9| H10------------------------------------9-10H12P10------------I
G|------------------------------------------------------9-8-8| H9-8--I
D|-----------------------------------------------------------------| I
A|-----------------------------------------------------------------| I
E|-----------------------------------------------------------------| I

 
E|-----------------------------------------------------------------| I
B|-----------------------------------9| B10-9B10-9B10-BD7-9B10-7-----I
G|---888-------------------------8-9---------------------------6---| I
D|-11---11-------------9-11---11-----------------------------------| I
A|--------12---12---12---------------------------------------------| I
E|-----------------------------------------------------------------| I
 
 
E|-11| B12-BD-9-11---11B12-BD-9-9H11---11-9-----I
B|----------------------------------------9---| I
G|--------------------------------------------| I
D|--------------------------------------------| I
A|--------------------------------------------| I
E|--------------------------------------------| I

 CHORDS ON part A :
 
 I            I             I            I            I
 I D          I C#m         I D          I C#m        I x?
 I            I             I            I            I
 
Outros vídeos desta música
      • ½ Tom
      • A
      • Bb
      • B
      • C
      • Db
      • D
      • Eb
      • E
      • F
      • F#
      • G
      • Ab
    • Adicionar à lista

    Afinação da cifra

    Afinador online

      0 comentários

      Ver todos os comentários

      Entre para o Cifra Club PRO

      Tenha acesso a benefícios exclusivos no App e no Site

      • Chega de anúncios

      • Badges exclusivas

      • Mais recursos no app do Afinador

      • Atendimento Prioritário

      • Aumente seu limite de lista

      • Ajude a produzir mais conteúdo

      Cifra Club Pro

      Aproveite o Cifra Club com benefícios exclusivos e sem anúncios
      Cifra Club Pro
      Aproveite o Cifra Club com benefícios exclusivos e sem anúncios
      OK