Cifra Club

Nepal

Kingston Wall

Cifra: Principal (violão e guitarra)
Selo Cifra Club: esta cifra foi revisada para atender aos critérios oficiais da nossa Equipe de Qualidade.
tom: D
 INTRO : LONG A             *

 RIFF

E|------------------------------| I
B|------------------------------| I this goes few times
G|--14----12----14--12--12--12--| I
D|------------------------------| I
A|-0---0-0---0-0---0---0---0----| I
E|------------------------------| I

E|------------------------------| I
B|------------------------------| I
G|------------------------------| I
D|-2--------5-4---5-------------| I
A|-0----------------------------| I
E|------------------------------| I
Outros vídeos desta música
    • ½ Tom
    • A
    • Bb
    • B
    • C
    • Db
    • D
    • Eb
    • E
    • F
    • F#
    • G
    • Ab
  • Adicionar à lista

Afinação da cifra

Afinador online

    0 comentários

    Ver todos os comentários

    Entre para o Cifra Club PRO

    Tenha acesso a benefícios exclusivos no App e no Site

    • Chega de anúncios

    • Mais recursos no app do Afinador

    • Atendimento Prioritário

    • Aumente seu limite de lista

    • Ajude a produzir mais conteúdo

    Cifra Club Pro

    Aproveite o Cifra Club com benefícios exclusivos e sem anúncios
    Cifra Club Pro
    Aproveite o Cifra Club com benefícios exclusivos e sem anúncios
    OK