Cifra Club

2000 man

Kiss

Cifra: Principal (violão e guitarra)
tom: B
Intro A5 E5 A5 - A5 E5 A5 - D5 A5 D5 A5 - D5 A5 E5

A5
Well, my name it is a number
              E5             A5
It's on a piece of plastic film
A5
And I've been growin' funny flowers
            E5              A5
Outside on my little window sill
D5                             A5   D5  A5
And don't you know I'm a 2,000 man
D5                                      A5    E5
And my kids, they just don't understand me at all


A5
You know, my wife still respects me
            E5              A5          
Even though I really misuse her
A5
I am having an affair
         E5             A5
With the Random computer

D5                             A5   D5  A5
But don't you know I'm a 2,000 man
D5                                      A5    E5
And my kids, they just don't understand me at all

A5 D5 A5  E5            D5 A5
Oh daddy, proud of your planet
A5 D5 A5  E5       D5   A5
Oh mommy, proud of your sun
A5 D5 A5  E5            D5 A5
Oh daddy, proud of your planet
A5 D5 A5  E5       D5   A5
Oh mommy. proud of your sun

D5                          
Oh daddy, your brain's still flashin'
B5
Like they did when you were young
A5          D5    D5  A5
Or did they come down crashin'
E5             B5           E5
Seeing all the things you'd done
E5              B5     E5
Spacin' out and havin' fun


A5 D5 A5  E5            D5 A5
Oh daddy, proud of your planet
A5 D5 A5  E5       D5   A5
Oh mommy, proud of your sun
A5 D5 A5  E5            D5 A5
Oh daddy, proud of your planet
A5 D5 A5  E5       D5   A5
Oh mommy. proud of your sun

E5 (ride) [Before Solo]
Solo 1(Rhythm Under Solo A5 - E5 - D5)

D5                          
Oh daddy, your brain's still flashin'
B5
Like they did when you were young
A5          D5    D5  A5
Or did they come down crashin'
E5             B5           E5
Seeing all the things you'd done
E5              B5     E5
Spacin' out and havin' fun

D5                             A5   D5  A5
And don't you know I'm a 2,000 man
D5                                      A5    E5
And my kids, they just don't understand me at all

D5                             A5   D5  A5
And don't you know I'm a 2,000 man
D5                                      A5    E5
And my kids, they just don't understand me at all

               E5 (As Per Recording)
Understand me, u-understand me, u-understand me, now understand me
    D5    E5  D5               A5   D5  A5
And don't you know I'm a 2,000 man
D5                                      A5    E5
And my kids, they just don't understand me at all

    D5    E5  D5               A5   D5  A5
And don't you know I'm a 2,000 man
D5                                      A5    E5
And my kids, they just don't understand me at all

Solo 2 (Rhythm Under Solo - A5 - D5 - E5 -D5)

A5 D5 A5 (Before End)

D5          A5   D5     A5
I'm a 2,000 man,             
D5          A5   D5     A5
I'm a 2,000 man
D5          A5   D5     A5       
I'm a 2,000 man, 
D5          A5               A5
I'm a 2,000 man, yeah, 2,000

Solo 1.

Eb|-------5-5-----|----5-5-------5-----5-5--------5----|
Bb|-------5-5-5---|----5-5-------5-----5-5--------5----|
Gb|----7b^----7b^-|-7b^-----7b------7b^-----7b^--------|
Db|---------------|------------------------------------|
Ab|---------------|------------------------------------|
Eb|---------------|------------------------------------|
      <---2X-----> 

Eb|-------5-5----5-5-----5-5----5-5--------------------|
Bb|-------5-5----5-5-----5-5----5-5---5---5---5--------|
Gb|---7b^-----7b^-----7b^----7b^----6---7---8---9-7~~~-|
Db|----------------------------------------------------|
Ab|----------------------------------------------------|
Eb|----------------------------------------------------|

Solo 2.

Eb|------5-5---|-------10-10---|------12-12------------|
Bb|------5-5---|-------10-10---|------12-12------------|
Gb|---7b^------|--12b^---------|--14b^-----------------|
Db|------------|---------------|-----------------------|
Ab|------------|---------------|-----------------------|
Eb|------------|---------------|-----------------------|
      <--6x-->    <----6x---->   <-----3x--->


Eb|-------12--12---------------------------------------|
Bb|-------12--12---------------------------------------|
Gb|--10b^----------------------------------------------|
Db|----------------------------------------------------|
Ab|----------------------------------------------------|
Eb|----------------------------------------------------|
     <----3x---->
00:00 / 00:00
Outros vídeos desta música
Repetir
Outros vídeos desta música
Composição de Keith Richards / Mick Jagger
Colaboração e revisão:
  • josé
36.389 exibições
    • ½ Tom
    • A
    • Bb
    • B
    • C
    • Db
    • D
    • Eb
    • E
    • F
    • F#
    • G
    • Ab
  • Adicionar à lista

    0 comentários

    Ver todos os comentários

    Conseguiu tocar?

    6 Tocaram 0 Ainda não

    Grave um vídeo tocando 2000 man e nos envie!

    Entre para oCifra Club PRO

    Tenha acesso a benefícios exclusivos no App e no Site

    • Chega de anúncios

    • Prioridade de compra em lançamentos

    • Mais recursos no app do Afinador

    • Atendimento Prioritário

    • Descontos nos produtos Cifra Club

    • Ajude a produzir mais conteúdo

    00:00 / 00:00

    Cifra Club Pro

    Aproveite o Cifra Club com benefícios exclusivos e sem anúncios
    Cifra Club Pro
    Aproveite o Cifra Club com benefícios exclusivos e sem anúncios
    OK