Cifra Club

Forever

KISS

Cifra: Principal (violão e guitarra)
Selo Cifra Club: esta cifra foi revisada para atender aos critérios oficiais da nossa Equipe de Qualidade.
tom: F#
Afinação: Db Ab Db Gb Bb Eb

(forma dos acordes no tom de G)

[Primeira Parte]

[Dedilhado - Primeira Parte]

Parte 1 de 4
   D9       C9       G5     D9
E|--------------------------------0---------|
B|-----3--------3--------3------3---3-------|
G|---2---2--------0-----------3-------------|
D|-0----------0---------0---0---------------|
A|----------3-------------------------------|
E|-------------------5----------------------|

Parte 2 de 4
           D9     C9
E|-3-2-3-2---0----3-------------------------|
B|-------------3--3-------------------------|
G|---------2------0-------------------------|
D|----------------2-------------------------|
A|----------------3-------------------------|
E|------------------------------------------|

Parte 3 de 4
   D9       C9       G5     D9
E|--------------------------------0---------|
B|-----3--------3--------3------3---3-------|
G|---2---2--------0-----------3-------------|
D|-0----------0---------0---0---------------|
A|----------3-------------------------------|
E|-------------------5----------------------|

Parte 4 de 4
           D9     C9
E|-3-2-3-2---0----3-------------------------|
B|-------------3--3-------------------------|
G|---------2------0-------------------------|
D|----------------2-------------------------|
A|----------------3-------------------------|
E|------------------------------------------|

D9          C9                                                  
   I gotta tell you what 
     G5        D9  
I'm feelin' inside
                                  
I could lie to myself,
           C9
But it's true 
D9               C9                                           
   There's no denying 
        G5          D9  
when I look in your eyes
                              C9
Girl I'm out of my head over you

[Segunda Parte]

[Dedilhado - Segunda Parte]

Parte 1 de 2
   Am7      G/B     C9    D9
E|------------------------------0-----------|
B|-----1--------3-------3-----3---3---------|
G|---0---0----0---0---0-----2---------------|
D|-2--------0-------0-----0-----------------|
A|-0--------2-------3-----------------------|
E|------------------------------------------|

Parte 2 de 2
   Am7   G/B       C9    D9
E|-------------0---------------0------------|
B|-----1-----3---3-----3-----3---3----------|
G|---0-----0---------0-----2----------------|
D|-2-----0---------0-----0------------------|
A|-0-----2---------3------------------------|
E|------------------------------------------|

Am7             G/B          
    I lived so long believin' 
C9            D9
All love is blind
    Am7          G/B         
But everything about you 
    C9              D9
Is tellin' me this time

[Refrão]

[Dedilhado - Refrão]

   C9  
E|-3-----2-----0----------------------------|
B|-----3-----3---3--------------------------|
G|---0-----0--------------------------------|
D|------------------------------------------|
A|------------------------------------------|
E|------------------------------------------|

        G  D  Em           C                     
It's fore_ver,   this time I know 
                Am          D
And there's no doubt in my mind
   G  D  G           Am             
Fore_ver,  until my life is through
G/B            C9              D  C9
    Girl I'll be lovin' you fore_ver

[Primeira Parte]

D9            C9          
   I hear the echo of 
    G5       D9
A promise I made
                                        
When you're strong you 
                  C9
Can stand on your own
D9                       C9           
   But those words grow distant 
      G5           D9
as I look at your face
                          C9
No, I don't wanna go it alone

[Segunda Parte]

Am7           G/B               
    I never thought I'd lay 
    C9           D9
my heart on the line
      Am7        G/B         
But everything about you 
    C9              D9
is tellin' me this time

[Refrão]

        G  D  Em           C                     
It's fore_ver,   this time I know 
                Am          D
And there's no doubt in my mind
   G  D  G           Am             
Fore_ver,  until my life is through
G/B            C9              D  C9
    Girl I'll be lovin' you fore_ver

[Solo] D9  C9  G5  D9  C9
       D9  C9  G5  D9  C9

[Dedilhado - Base Solo]

Parte 1 de 4
   D9       C9       G5     D9
E|--------------------------------0---------|
B|-----3--------3--------3------3---3-------|
G|---2---2--------0-----------3-------------|
D|-0----------0---------0---0---------------|
A|----------3-------------------------------|
E|-------------------5----------------------|

Parte 2 de 4
           D9     C9
E|-3-2-3-2---0----3-------------------------|
B|-------------3--3-------------------------|
G|---------2------0-------------------------|
D|----------------2-------------------------|
A|----------------3-------------------------|
E|------------------------------------------|

Parte 3 de 4
   D9       C9       G5     D9
E|--------------------------------0---------|
B|-----3--------3--------3------3---3-------|
G|---2---2--------0-----------3-------------|
D|-0----------0---------0---0---------------|
A|----------3-------------------------------|
E|-------------------5----------------------|

Parte 4 de 4
           D9     C9
E|-3-2-3-2---0----3-------------------------|
B|-------------3--3-------------------------|
G|---------2------0-------------------------|
D|----------------2-------------------------|
A|----------------3-------------------------|
E|------------------------------------------|

[Tab - Solo]

Parte 1 de 4
E|--------10--10-10---10---10---8-----------|
B|------------------------------------------|
G|-----7------------7----7----7-------------|
D|---0--------------------------------------|
A|------------------------------------------|
E|-0----------------------------------------|

E|---7h8p7----------------------------------|
B|---------10-8-7---------------------------|
G|-7--------------9-7-----------------------|
D|------------------------------------------|
A|------------------------------------------|
E|------------------------------------------|

Parte 2 de 4
                                         H.N
E|------------------------------------------|
B|---7-7h8---7-8----------------------------|
G|-9-------9-----9-----------------------5--|
D|---------------------------------------5--|
A|-----------------10-9-10-7-9-5/7-7\3-3-5--|
E|---------------------------------------5--|

Parte 3 de 4
E|--------------------------------7---------|
B|-----7-8-10~-8-7-7h8p7---7-8-10---10------|
G|-----------------------9------------------|
D|---0--------------------------------------|
A|------------------------------------------|
E|-0----------------------------------------|

E|------------------------------------------|
B|-7-7h8p7---7------------------------------|
G|---------9---7/9\7------------------------|
D|-------------------9-7--------------------|
A|-----------------------9\7p5-7~-----------|
E|------------------------------------------|

Parte 4 de 4
E|----------12-14-15-14-12-14-15-14-12------|
B|-------12---------------------------------|
G|----12------------------------------------|
D|-14---------------------------------------|
A|------------------------------------------|
E|------------------------------------------|

E|----15-------14------12-----10------------|
B|----15-------15------12-----10------------|
G|-12----12-11----11-9----9-7----7\5~-------|
D|------------------------------------------|
A|------------------------------------------|
E|------------------------------------------|

[Segunda Parte]

    Am7          G/B         
Ohh,   I see my future
        C9          D9
When I look in your eyes
Am7               G/B             
    It took your love to make 
    C9          D9
my heart come alive
Am7                   G/B           
   'Cause I lived my life 
          C9            D9
believin' all love is blind
      Am7        G/B         
But everything about you 
    C9              D9
is tellin' me this time

[Refrão]

        G  D  Em           C                     
It's fore_ver,   this time I know 
                Am          D
And there's no doubt in my mind
   G  D  G           Am             
Fore_ver,  until my life is through
G/B            C9              D  C9
    Girl I'll be lovin' you fore_ver
Outros vídeos desta música
508.111 exibições
  • Simplificar cifra
    • ½ Tom
    • A
    • Bb
    • B
    • C
    • Db
    • D
    • Eb
    • E
    • F
    • F#
    • G
    • Ab
  • Adicionar à lista

Afinação da cifra

Afinador online

    0 comentários

    Ver todos os comentários

    Entre para o Cifra Club PRO

    Tenha acesso a benefícios exclusivos no App e no Site

    • Chega de anúncios

    • Mais recursos no app do Afinador

    • Atendimento Prioritário

    • Aumente seu limite de lista

    • Ajude a produzir mais conteúdo

    Capítulos
    • Início
    • Dicas iniciais
    • Acordes da primeira parte
    • Tocando primeira parte
    • Ensinando dedilhado primeira parte
    • Acordes da segunda parte
    • Tocando segunda parte
    • Ensinando dedilhado segunda parte
    • Acordes do refrão
    • Tocando refrão
    • Ensinando dedilhado do refrão
    • Ensinando passagem do refrão
    • Dicas
    • Tocando trecho da repetição
    • Solo
    • Ensinando solo (parte 1)
    • Ensinando solo (parte 2)
    • Ensinando solo (parte 3)
    • Ensinando solo (parte 4)
    • Encerramento
    • Extras

    Cifra Club Pro

    Aproveite o Cifra Club com benefícios exclusivos e sem anúncios
    Cifra Club Pro
    Aproveite o Cifra Club com benefícios exclusivos e sem anúncios
    OK