Cifra Club

Aprenda

Kokoro

Kitaro

Cifra: Principal (violão e guitarra)
Quer fazer aulas de música com a gente? Responda essas perguntas
e nos ajude nesse projeto! →
tom: F
E|----------|----------|----------|--------------------8-(10)--| 
B|----------|----------|----------|--------8-8h10-8-10---------| 
G|-----5h7~-|-----7h9~-|-----7h9--|-7-9-10---------------------| 
D|-5s7------|-5s7------|-5s7------|----------------------------| 
A|----------|----------|----------|----------------------------| 
E|----------|----------|----------|----------------------------| 
(Esta seqüência fica se repetindo, e reaparece mais pro final, 
interprete-a como introdução) 
 
 
E|--------------|----------|-----------|----------|------------| 
B|-15-15-15h17~-|-18-17-15-|-------15~-|-17-15-13-|-------13---| 
G|--------------|----------|-13-13-----|----------|-13-15------| 
D|--------------|----------|-----------|----------|------------| 
A|--------------|----------|-----------|----------|------------| 
E|--------------|----------|-----------|----------|------------| 
 
E|----------|--------------------------|-----------------------| 
B|-17-15-13-|-------------15h17-17-17~-|----------13---13-13h15| 
G|----------|-15-15-15h17--------------|----13-15----15--------| 
D|----------|--------------------------|-16--------------------| 
A|----------|--------------------------|-----------------------| 
E|----------|--------------------------|-----------------------| 
 
E|----------|-------------------|------------------------------| 
B|-17~-17-15|-------15-17-15-13-|-------------17-17-15---------| 
G|----------|-13-13-------------|-15-15-15h17------------------| 
D|----------|-------------------|------------------------------| 
A|----------|-------------------|------------------------------| 
E|----------|-------------------|------------------------------| 
 
E|-------------------------|-----------------------------------| 
B|-------------15-15-15h17-|----19-19h21-21~-19-17h19p17h19----| 
G|-17-17-17h19-------------|-21--------------------------------| 
D|-------------------------|-----------------------------------| 
A|-------------------------|-----------------------------------| 
E|-------------------------|-----------------------------------| 
 
E|--------------|----------|-----------------------------------| 
B|-13-15-15s17~-|--21-19-19|-----------------------------------| 
G|--------------|----------|-----------------------------------| 
D|--------------|----------|-----------------------------------| 
A|--------------|----------|-----------------------------------| 
E|--------------|----------|-----------------------------------| 
 
 
(04:46) 
E|----------|----------|----------|--------------------8-(10)--| 
B|----------|----------|----------|--------8-8h10-8-10---------| 
G|-----5h7~-|-----7h9~-|-----7h9--|-7-9-10---------------------| 
D|-5s7------|-5s7------|-5s7------|----------------------------| 
A|----------|----------|----------|----------------------------| 
E|----------|----------|----------|----------------------------| 
 
E|-12-12-12-12p10-10-------|-8-10-8-10s12----------------------| 
B|-------------------------|-----------------------------------| 
G|-------------------------|-----------------------------------| 
D|-------------------------|-----------------------------------| 
A|-------------------------|-----------------------------------| 
E|-------------------------|-----------------------------------| 
 
E|----------|----------|----------|--------------------8-(10)--| 
B|----------|----------|----------|--------8-8h10-8-10---------| 
G|-----5h7~-|-----7h9~-|-----7h9--|-7-9-10---------------------| 
D|-5s7------|-5s7------|-5s7------|----------------------------| 
A|----------|----------|----------|----------------------------| 
E|----------|----------|----------|----------------------------| 
 
(A música segue assim, misturando cada solo descrito...)
Compositor não encontrado.
Colaboração e revisão:
  • Gabriel Fox
3.201 exibições
    • ½ Tom
    • A
    • Bb
    • B
    • C
    • Db
    • D
    • Eb
    • E
    • F
    • F#
    • G
    • Ab
  • Adicionar à lista

    0 comentários

    Ver todos os comentários

    Conseguiu tocar?

    0 Tocaram 0 Ainda não

    Grave um vídeo tocando Kokoro e nos envie!

    00:00 / 00:00
    Outros vídeos desta música
    Repetir Qualidade Automático
    Outros vídeos desta música
    00:00 / 00:00
    Automático

    Cifra Club Pro

    Aproveite o Cifra Club com benefícios exclusivos e sem anúncios
    Cifra Club Pro
    Aproveite o Cifra Club com benefícios exclusivos e sem anúncios
    OK