Cifra Club

Brackish

Kittie

Cifra: Principal (violão e guitarra)
tom: Bb (forma dos acordes no tom de C) Afinação: D G C F A D
Afinação| D A F C G C

Opening Riff

|-----------12------------12----13---
|-11-11--11-----11-11--11----11------
|------------------------------------   X 3
|------------------------------------
|------------------------------------
|------------------------------------

|-----------12-----------------------
|-11-11--11----11--11--11-11-11-11---
|------------------------------------   X 1
|------------------------------------
|------------------------------------
|------------------------------------


Chorus Riff

|------------------------------------
|------------------------------------
|------------------------------------   X 8
|-0-1-0-1-1--0-1-0-1-6--6------------
|-0-1-0-1-1--0-1-0-1-6--6------------
|-0-1-0-1-1--0-1-0-1-6--6------------

Verse Riff

|----------------------------------------------
|----------------------------------------------
|----------------------------------------------   X 4
|-0-0-8-0-0------------------------------------
|-0-0-8-0-0[let ring]----0-0-8-0-0-------------
|-0-0-8-0-0--------------0-0-8-0-0-------------
PM. .   .                . .   . .

Verse 3 Riff (esse é diferente)
|------------------------------------
|------------------------------------
|------------------------------------
|-6-|--------------------------------
|-6-|---------1p0--------------------  x 7
|-6-|---------1p0--------------------



Interlude 2

|-----------------------------------
|----3-------3-----3-------5--------
|---*5^-----*5^---*5^-----*7^-------
|-0-----0-0-----0-----0-0-----------
|-0-----0-0-----0-----0-0-----------
|-0-----0-0-----0-----0-0-----------



Chorus final

|------------------------------------
|------------------------------------
|------------------------------------
|-0-1-0-1-1--0-1-0-1-6--6------------
|-0-1-0-1-1--0-1-0-1-6--6------------
|-0-1-0-1-1--0-1-0-1-6--6------------
00:00 / 00:00
Outros vídeos desta música
Repetir
Outros vídeos desta música
Composição de Belzunces
Colaboração e revisão:
  • Pedro Henrique
15.017 exibições
    • ½ Tom
    • A
    • Bb
    • B
    • C
    • Db
    • D
    • Eb
    • E
    • F
    • F#
    • G
    • Ab
  • Adicionar à lista

    0 comentários

    Ver todos os comentários

    Conseguiu tocar?

    1 Tocaram 0 Ainda não

    Grave um vídeo tocando Brackish e nos envie!

    00:00 / 00:00

    Cifra Club Pro

    Aproveite o Cifra Club com benefícios exclusivos e sem anúncios
    Cifra Club Pro
    Aproveite o Cifra Club com benefícios exclusivos e sem anúncios
    OK