Cifra Club

Charlotte

Kittie

Cifra: Principal (violão e guitarra)
exibições 13.657
Tom: C
Obs.: A cifra não esta com a tablatura de cabeça para baixo como de costume.

Afinação
C-G-C-F-A-D:

Os riffs devem ser encaixados de acordo com a musica.

intro

C|-4x-4x-4x-|
G|-4x-4x-4x-|
C|-4x-4x-4x-|
F|----------|
A|----------|
D|----------|

riff 1

C|-0-0-0-0-4-4-4-4-|
G|-0-0-0-0-4-4-4-4-|
C|-0-0-0-0-4-4-4-4-|
F|-----------------|
A|-----------------|
D|-----------------|

riff 2

C|-3-2-0-2-0-2-0-2-0-2-3-3-|
G|-------------------------|
C|-------------------------|
F|-------------------------|
A|-------------------------|
D|-------------------------|

riff 3

C|----------------------5-|
G|-5-5~~~9--9-~~~10-10--5-|
C|-x-x~~~x--x-~~~x--x---x-|
F|-7-7~~~11-11~~~12-12--7-|
A|------------------------|
D|------------------------|
Acordes para:
    Colaboração e revisão:
    • Patricia Costa

    0 comentários

    mostrar mais comentários

    Conseguiu tocar?

    0 tocaram 0 ainda não

    Grave um vídeo tocando Charlotte e mande pra gente!

    00:00 / 00:00
    outros vídeos desta música
    repetir qualidade Automático
    Outros vídeos desta música
    00:00 / 00:00
    Automático
    OK