Cifra Club

Choke

Kittie

Cifra: Principal (violão e guitarra)
tom: E
6=C  3=F 
5=G  2=A 
4=C  1=D 
 
Intro 
 
                  
Guitar One                  8  
d|---------------------------|---------------------------|--------| 
A|---------------------------|---------------------------|--------| 
F|---------------------------|-7-7-7-7-8-7-7-7-7-8-7-7-9-|--------| 
C|-0-0-0-0-1-0-0-0-0-1-0-0-2-|---------------------------|--------| 
G|-0-0-0-0-1-0-0-0-0-1-0-0-2-|-5-5-5-5-6-5-5-5-5-6-5-5-7-|-2-1-1-0| 
C|-0-0-0-0-1-0-0-0-0-1-0-0-2-|---------------------------|-2-1-1-0| 
   pm.......................   3rd Time This Comes In      pm... 
 
 Verse 
                                   4  
d|---------|-----------------------|-------------| 
A|---------|-----------------------|-------------| 
F|-----7/8-|-----------------------|-------------| 
C|-(0)-----|-----------------------|-------------| 
G|-(0)-5/6-|-----------------------|-------------| 
C|-(0)-----|-0-0-0-1-0-0-0-1-0-0-2-|-0-0-0-1-0-0-| 
            | * Bass Guitar       | 
 
"I Looked Over You..." Part 
  
d|-----------------------------------| 
A|-----------------------------------| 
F|-----3-----3---------4-----4-------| 
C|-----------------------------------| 
G|-1-1---1-1---1-1-2-2---2-2---2-2---| 
C|-1-1---1-1---1-1-2-2---2-2---2-2---| 
   pm.   ...   .......   ...   ... 
     
 
Chorus: "Shut Up! Shut Up!" 
                         6                           3 
d|-----------------------|---------------------------|------| 
A|-----------------------|---------------------------|------| 
F|-----------------------|---------------------------|------| 
C|-0-6-5-0-7-6-0-6-5-0-4-|---------------------------|------| 
G|-0-6-5-0-7-6-0-6-5-0-4-|-0-0-0-0-1-0-0-0-0-1-0-0-2-|-2-1-1-0| 
C|-0-6-5-0-7-6-0-6-5-0-4-|-0-0-0-0-1-0-0-0-0-1-0-0-2-|-2-1-1-0| 
                                                       pm... 
                           |Repeat This Part Twice          | 
 
 Outro Part One 
                                   3 
d|---------------------------------|------------------------|
A|---------------------------------|------------------------| 
F|---------------------------------|------------------------| 
C|-6-6-6-5-5-5-4-4-4-3-3-3-2-2-1-1-|-6-6-6-5-5-5-4-0-0--0-0-| 
G|---------------------------------|---------------0-0--0-0-| 
C|---------------------------------|---------------0-0--0-0-| 
                                                   pm......        
Outro Part Two     
                                                              4 ....Choke 
d|------------------------------------------------------------|---------| 
A|------------------------------------------------------------|---------| 
F|------------------------------------------------------------|---------| 
C|-6-6-6-5-5-5-4-4-4----------------6-6-6-5-5-5-4-4-----------|---------| 
G|-6-6-6-5-5-5-4-4-4-0-0-0-0-0-0-0--6-6-6-5-5-5-4-4--0-0--0-0-|-------0-| 
C|-6-6-6-5-5-5-4-4-4-0-0-0-0-0-0-0--6-6-6-5-5-5-4-4--0-0--0-0-|-------0-| 
                     pm...........                   pm......         pm 
Composição de Kittie
2.206 exibições
    • ½ Tom
    • A
    • Bb
    • B
    • C
    • Db
    • D
    • Eb
    • E
    • F
    • F#
    • G
    • Ab
  • Adicionar à lista

    0 comentários

    Ver todos os comentários

    Conseguiu tocar?

    0 Tocaram 0 Ainda não

    Grave um vídeo tocando Choke e nos envie!

    00:00 / 00:00
    Outros vídeos desta música
    Repetir Qualidade Automático
    Outros vídeos desta música
    00:00 / 00:00
    Automático

    Cifra Club Pro

    Aproveite o Cifra Club com benefícios exclusivos e sem anúncios
    Cifra Club Pro
    Aproveite o Cifra Club com benefícios exclusivos e sem anúncios
    OK