Cifra Club

Choke

Kittie

Tab de baixo: Principal
intro: 
B|--5-5-5-5--- (x4) 
 
 
Verse: 
B|--1111--5555--1111--5555--1111--5555--1111--555-- (x4) 
 
im not 100% sure on the 1111 part, cause in the acoustic 
version its just the 5555 by its self, but in the heavy 
version its sounds great like this! 
 
 
Pre Chorus: 
B|-5-5-- (x1) 
 
 
Chorus: 
B|--432-3-2-3-2-3-2-2334-- (x8) 
 
 
Break: (the great part of the song!) 
B|-1--let-ring--- 
 
then start playing this.. 
 
A|-3-3-3\7-7-7-7h8-8-8----------------------------------  
E|------------------------------------------------------ 
B|---------------------------6-6-6-6-6-6-6-6-6-6-6-6-6-- 
 
your going to do this for a while, and then the 
guitars come in and theres one part that goes.. 
 
A|3333333333333333333--------------------------------- 
E|---------------------------------------------------- 
B|----------------------------6666666666666666666666-- 
 
then you go back to doing the 1st part of the break, 
(not the ring part!) 
you gotta listen to the song to get the rythm. 
 
 
 
Outro: 
A|--3-3-4-4-3-3-4-4------------------------- 
E|------------------------------------------ (x4) 
B|---------------------1-2-1-2-1-1-1-1-2---- 
00:00 / 00:00
Outros vídeos desta música
Repetir
Outros vídeos desta música
Composição de Kittie
Colaboração e revisão:
  • Hellektra
482 exibições

0 comentários

Ver todos os comentários

Conseguiu tocar?

0 Tocaram 0 Ainda não

Grave um vídeo tocando Choke e nos envie!

00:00 / 00:00

Cifra Club Pro

Aproveite o Cifra Club com benefícios exclusivos e sem anúncios
Cifra Club Pro
Aproveite o Cifra Club com benefícios exclusivos e sem anúncios
OK