Cifra Club

Looks So Pretty

Kittie

Cifra: Principal (violão e guitarra)
tom: E
Tuning:CGCFAD

D|----------------------------|
A|----------------------------|
F|----------------------------|----------------------------|
C|-0---1---6---5---6---3---5--|X3                          | 
G|-0---1---6---5---4---3---3--|                            |
C|-0---1---6---5-------3------|                            |
                                 6 3 5                     |
After the 3rd time leave off the 4 3 3 and go down to      |X2
this                               3                       |
D|-----------|                                             |
A|-----------|                                             |
F|-----------|                                             |
C|--3--3--0--|---------------------------------------------|
G|--3--3--0--|
C|--3--3--0--|
-------------PM
Play the entire intro twice, then

D|---------------------------|
A|---------------------------|
F|---------------------------|
C|---------------------------|X4
G|---------------------------|
C|--00-00-44-00--00-00-44-55-|
-----------------------------PM

D|---------------------------|
A|---------------------------|
F|---------------------------|
C|---------------------------|X8
G|--00-00-44-00--00-00-44-55-|
C|--00-00-44-00--00-00-44-55-|
-----------------------------PM                     5
On the 8th time through on the verse, play the last 5 open.

D|---------------------------------------|
A|---------------------------------------|
F|---------------------------------------|
C|--0------5/4--0------7/5--0------5/4---|X4
G|--0------5/4--0------7/5--0------5/4---|
C|--0-0000-5/4--0-0000-7/5--0-0000-5/4---|
      ----        ----        ----

D|--------------------------------|
A|--------------------------------|
F|--------------------------------|
C|--------------------------------|X4
G|--------------------------------|
C|--00-00-44-00---00-00-44-55-00--|

D|-----------------------|
A|-----------------------|
F|-----------------------|
C|-----------------------|X4
G|--------5/4---------2--|
C|---0000-5/4-0000000-2--|
-------------------------PM

D|---------|
A|---------|
F|---------|
C|-0-1-6-5-|
G|-0-1-6-5-|
C|-0-1-6-5-|

D|-------------------------------|
A|-------------------------------|
F|-------------------------------|-----|
C|--0-1-6-5-6-3-5--x3---0-1-6-5--|     |
G|--0-1-6-5-4-3-3-------0-1-6-5--|     |
C|--0-1-6-5---3---------0-1-6-5--|     |
                                       |X2
D|---------|                           |
A|---------|                           |
F|---------|                           |
C|---0-3-0-|---------------------------|
G|---0-3-0-| 
C|---0-3-0-|
-----------PM

D|-----------------------------|
A|-----------------------------|
F|-----------------------------|
C|-----------------------------|X4
G|-----------------------------|
C|--5-554-554-554-554-554-0000-|
-------------------------------PM

Thats about it. After this part it loops around. I believe that after the second
chorus that you can see that the very last part on here just repeats as the song
fades.

| /  slide up
| \  slide down
| h  hammer-on
| p  pull-off
| ~  vibrato
| +  harmonic
| -  Mute note
Compositor não encontrado.
Colaboração e revisão:
  • Hellektra
579 exibições
    • ½ Tom
    • A
    • Bb
    • B
    • C
    • Db
    • D
    • Eb
    • E
    • F
    • F#
    • G
    • Ab
  • Adicionar à lista

    0 comentários

    Ver todos os comentários

    Conseguiu tocar?

    0 Tocaram 0 Ainda não

    Grave um vídeo tocando Looks So Pretty e nos envie!

    00:00 / 00:00
    Outros vídeos desta música
    Repetir Qualidade Automático
    Outros vídeos desta música
    00:00 / 00:00
    Automático

    Cifra Club Pro

    Aproveite o Cifra Club com benefícios exclusivos e sem anúncios
    Cifra Club Pro
    Aproveite o Cifra Club com benefícios exclusivos e sem anúncios
    OK