Cifra Club

Run Like Hell

Kittie

Cifra: Principal (violão e guitarra)
tom: F#
Tuning: C,G,C,F,A,D

Intro:

------------------------------
------------------------------
------------------------------
-2-3-3-0-0--------------------
-2-3-3-0-0--------------------
-2-3-3-0-0--------------------

--------------------------------------------------------
--------------------------------------------------------
--------------------------------------------------------
-2-2-2--2-2-2--2-2-2--2-2-2--2-2-2--2-2-2--2-2-2-2-2-2-2
-2-2-2--2-2-2--2-2-2--2-2-2--2-2-2--2-2-2--2-2-2-2-2-2-2
-2-2-2--2-2-2--2-2-2--2-2-2--2-2-2--2-2-2--2-2-2-2-2-2-2

--------------------------------------------------------
--------------------------------------------------------
--------------------------------------------------------
-2-2-2--2-2-2--2-2-2--2-2-2--2-2-2--2-2-2--2-2-2-1-1----
-2-2-2--2-2-2--2-2-2--2-2-2--2-2-2--2-2-2--2-2-2-1-1----
-2-2-2--2-2-2--2-2-2--2-2-2--2-2-2--2-2-2--2-2-2-1-1----


Chorus:

Guitar1:
---------------------------
---------------------------
---------------------------
-1-1-1-1-1-1-2-1-2-2-1-----
-1-1-1-1-1-1-2-1-2-2-1-----
-1-1-1-1-1-1-2-1-2-2-1-----
I--------PM-----------I

Guitar2:
------------------------------------
------------------------------------
-9-9-7----7-7-5----5-5-3----7-7-9---
-9-9-7----7-7-5----5-5-3----7-7-9---
-7-7-5----5-5-3----3-3-1----5-5-7---
------------------------------------

Verse1:
------------------------------------
------------------------------------
------------------------------------
-2\3--2\7--2------------------------
-2\3--2\7--2------------------------
-2\3--2\7--2------------------------


Chorus:

both Guitars
---------------------------
---------------------------
---------------------------
-1-1-1-1-1-1-2-1-2-2-1-----
-1-1-1-1-1-1-2-1-2-2-1-----
-1-1-1-1-1-1-2-1-2-2-1-----
I---------PM----------I


Verse2:
---------------------------------------
---------------------------------------
---------------------------------------
-2\3--2\7--2\3--2\10--2\4\8--2\3--2----
-2\3--2\7--2\3--2\10--2\4\8--2\3--2----
-2\3--2\7--2\3--2\10--2\4\8--2\3--2----


Chorus:

Guitar1:
---------------------------
---------------------------
---------------------------
-1-1-1-1-1-1-2-1-2-2-1-----
-1-1-1-1-1-1-2-1-2-2-1-----
-1-1-1-1-1-1-2-1-2-2-1-----
I--------PM-----------I

Guitar2:
------------------------------------
------------------------------------
-9-9-7----7-7-5----5-5-3----7-7-9---
-9-9-7----7-7-5----5-5-3----7-7-9---
-7-7-5----5-5-3----3-3-1----5-5-7---
------------------------------------

Verse1:
------------------------------------
------------------------------------
------------------------------------
-2\3--2\7--2------------------------
-2\3--2\7--2------------------------
-2\3--2\7--2------------------------

Chorus:

both Guitars
---------------------------
---------------------------
---------------------------
-1-1-1-1-1-1-2-1-2-2-1-----
-1-1-1-1-1-1-2-1-2-2-1-----
-1-1-1-1-1-1-2-1-2-2-1-----
I---------PM----------I


Verse2:
---------------------------------------
---------------------------------------
---------------------------------------
-2\3--2\7--2\3--2\10--2\4\8--2\3--2----
-2\3--2\7--2\3--2\10--2\4\8--2\3--2----
-2\3--2\7--2\3--2\10--2\4\8--2\3--2----


Chorus:

both Guitars
---------------------------
---------------------------
---------------------------
-1-1-1-1-1-1-2-1-2-2-1-----
-1-1-1-1-1-1-2-1-2-2-1-----
-1-1-1-1-1-1-2-1-2-2-1-----
I---------PM----------I


Outro:
-----------------------------------
-----------------------------------
-----------------------------------
-2-1-2-2---------------------------
-2-1-2-2---------------------------
-2-1-2-2---------------------------
end......
00:00 / 00:00
Outros vídeos desta música
Repetir
Outros vídeos desta música
Composição de Pink Floyd
4.484 exibições
    • ½ Tom
    • A
    • Bb
    • B
    • C
    • Db
    • D
    • Eb
    • E
    • F
    • F#
    • G
    • Ab
  • Adicionar à lista

    0 comentários

    Ver todos os comentários

    Conseguiu tocar?

    0 Tocaram 0 Ainda não

    Grave um vídeo tocando Run Like Hell e nos envie!

    00:00 / 00:00

    Cifra Club Pro

    Aproveite o Cifra Club com benefícios exclusivos e sem anúncios
    Cifra Club Pro
    Aproveite o Cifra Club com benefícios exclusivos e sem anúncios
    OK