Cifra Club

Severed

Kittie

Cifra: Principal (violão e guitarra)
tom: Ab
BASS INTRO!!

D|------------|--|
A|------------|--|
F|------------|-x|
C|------------|30|
G|3-2-0-4-5p4-|--|
C|3-2-0-4-5p4-|--|
PM. . . .
Look at you now
You selfish pig


D|-------------------------------------|-|
A|-------------------------------------|-|
F|-------------------------------------|x|
C|-------------------------------------|8|
G|0000000000---0000000000--000000------|-|
C|0000000000---0000000000--000000------|-|
  ..........   ..........  ......
I walked around in circles to revisit where I've always been
You spoke of where your heart was I thought I knew you well
Ties that bind you have been severed


D|------------|-|--------|-|:|
A|------------|-|--------|-|:|
F|------------|x|--------|x|:|
C|------------|4|3-3-3-3-|8|:|
G|3-2-0-4-5p4-|-|1-1-1-1-|-|:|
C|3-2-0-4-5p4-|-|--------|-|:|
  . . . .
Look at you now eyes wide open truth begged to be told
Look at you now eyes wide open for you bought and sold


D|--------------------------|-|
A|--------------------------|-|
F|--------------------------|x|
C|--------------------------|4|
G|2-----4-5------2t4t1t3t0--|-|
C|2-----4-5------2t4t1t3t0--|-|

D|-------------------------------------|-|
A|-------------------------------------|-|
F|-------------------------------------|x|
C|-------------------------------------|8|
G|0000000000---0000000000--000000------|-|
C|0000000000---0000000000--000000------|-|
  ..........   ..........  ......
I want to make you feel this trusting arms let me fall once again
I stood close to an enemy and closer to a friend
Ties that bind you have been severed


D|------------|-|--------|-|:|
A|------------|-|--------|-|:|
F|------------|x|--------|x|:|
C|------------|4|3-3-3-3-|8|:|
G|3-2-0-4-5p4-|-|1-1-1-1-|-|:|
C|3-2-0-4-5p4-|-|--------|-|:|
  . . . .
Look at you now...

BASS OUTRO
00:00 / 00:00
Outros vídeos desta música
Repetir
Outros vídeos desta música
Composição de Kittie
Colaboração e revisão:
  • Hellektra
468 exibições
    • ½ Tom
    • A
    • Bb
    • B
    • C
    • Db
    • D
    • Eb
    • E
    • F
    • F#
    • G
    • Ab
  • Adicionar à lista

    0 comentários

    Ver todos os comentários

    Conseguiu tocar?

    0 Tocaram 0 Ainda não

    Grave um vídeo tocando Severed e nos envie!

    00:00 / 00:00

    Cifra Club Pro

    Aproveite o Cifra Club com benefícios exclusivos e sem anúncios
    Cifra Club Pro
    Aproveite o Cifra Club com benefícios exclusivos e sem anúncios
    OK