Cifra Club

Trippin

Kittie

Cifra: Principal (violão e guitarra)
tom: C
Tuning: 1 Whole Step  
 And Then Drop "D" Tuning 
  
 6=C 3=F 
 5=G 2=A  
 4=C 1=D 
  
 Tab Notes 
 nh=Natural Harmonics 
 pm.=Palm Mute 
 /=Slide Down 
 ~=Vibrato 
  
 ------------------------------------------------------------------------------ 
 ------------------------------------------------------------------------------ 
 -------------7-------8-------7-------8---------------------------------------- 
 ------------------------------------------------------------------------------ 
 -------------5-------6-------5-------6---------------------------------------- 
 -------0-0-0---0-0-0---0-0-0---0-0-0------------------------------------------ 
  Intro pm...   .....   .....   .....   Repeat Twice                            
  
 ------------------------------------------------------------------------------ 
 ------------------------------------------------------------------------------ 
 ------------------------------------------------------------------------------ 
 ------*13/*--0-0--0-0-0--5/7-0--8-9------------------------------------------- 
 ------*13/*--0-0--0-0-0--5/7-0--8-9------------------------------------------- 
 ------*13/*--0-0--0-0-0--5/7-0--8-9------------------------------------------- 
  Verse            pm...  .....   *1st Time Only                                
  
 ------------------------------------------------------------------------------ 
 ------------------------------------------------------------------------------ 
 -------------------------------------------------------nh..........----------- 
 -0-7-0-7-0-7-0-7-8-8-8-8-0-7-0-7-0-7-0-7-8-8-8-8--------7----7----7----------- 
 -0-7-0-7-0-7-0-7-8-8-8-8-0-7-0-7-0-7-0-7-8-8-8-8--------7----7----7----------- 
 -0-7-0-7-0-7-0-7-8-8-8-8-0-7-0-7-0-7-0-7-8-8-8-8--------7----7----7----------- 
  Chorus "...You're Trippin', I Don't Think So!" Repeat Twice                   
  
 ------------------------------------------------------------------------------ 
 ------------------------------------------------------------------------------ 
 ------------------------------------------------------------------------------ 
 -0~-------7-7--*0-7-8-0-7-8-0-7-8-0-7-8-0-0-7-0-7-8-0-7-8-0-7-8-0-7-8-0-0-6*-- 
 -0~-------7-7--*0-7-8-0-7-8-0-7-8-0-7-8-0-0-7-0-7-8-0-7-8-0-7-8-0-7-8-0-0-6*-- 
 -0~-------7-7--*0-7-8-0-7-8-0-7-8-0-7-8-0-0-7-0-7-8-0-7-8-0-7-8-0-7-8-0-0-6*-- 
  Bridge   nh.. *Repeat Between Stars Twice And Then Go Into Fill 1             
  
 ------------------------------------------------------------------------------ 
 ------------------------------------------------------------------------------ 
 ------------------------------------------------------------------------------ 
 -4-2-0-3---------------------------------------------------------------------- 
 -4-2-0-3---------------------------------------------------------------------- 
 -4-2-0-3---------------------------------------------------------------------- 
  Fill 1                                                                        
  
 ------------------------------------------------------------------------------ 
 ------------------------------------------------------------------------------ 
 ------------------------------------------------------------------------------ 
 ------------------------------------------------------------------------------ 
 ------------------------------------------------------------------------------ 
 ------------------------------------------------------------------------------ 
  Repeat Bridge Twice And Then Go Into Chorus                                   
  
 ------------------------------------------------------------------------------ 
 ------------------------------------------------------------------------------ 
 ------------------------------------------------------------------------------ 
 -0~--------------------------------------------------------------------------- 
 -0~--------------------------------------------------------------------------- 
 -0~--------------------------------------------------------------------------- 
  End                    ....Feedback.....       

--------------------------------------------------------------------------------
Composição de Kittie
Colaboração e revisão:
  • Hellektra
597 exibições
    • ½ Tom
    • A
    • Bb
    • B
    • C
    • Db
    • D
    • Eb
    • E
    • F
    • F#
    • G
    • Ab
  • Adicionar à lista

    0 comentários

    Ver todos os comentários

    Conseguiu tocar?

    0 Tocaram 0 Ainda não

    Grave um vídeo tocando Trippin e nos envie!

    00:00 / 00:00
    Outros vídeos desta música
    Repetir Qualidade Automático
    Outros vídeos desta música
    00:00 / 00:00
    Automático

    Cifra Club Pro

    Aproveite o Cifra Club com benefícios exclusivos e sem anúncios
    Cifra Club Pro
    Aproveite o Cifra Club com benefícios exclusivos e sem anúncios
    OK