Cifra Club

Aprenda

Free Your Hate

Kmfdm

Cifra: Principal (violão e guitarra)
tom: G
Afinação Drop C (C G C F A D)

Riff Principal (2x)

PM                   . .
D|-------------------------------------
A|-------------------------------------
F|-------------------------------------
C|-0---1-----5/7\--------0---1-----5/7-
G|-0-x-1-(0)-3/5\----0-0-0-x-1-(0)-3/5-
C|-0-x-1-(0)---------0-0-0-x-1-(0)-----

PM                   . .
D|----------------------------------------------------|
A|----------------------------------------------------|
F|----------------------------------------------------|
C|-0---1-----5/7\--------0---1-----5/7----------------|
G|-0-x-1-(0)-3/5\----0-0-0-x-1-(0)-3/5-x-3-3-x-3-3--3-|
C|-0-x-1-(0)---------0-0-0-x-1-(0)-----x-3-3-x-3-3--3-|

Verso:

PM       . . . . . . . . .                   
D|---------------------------------
A|---------------------------------
F|---------------------------------
C|---------------------------------
G|---------------------------------
C|-0-1---3-3-3-3-3-3-3-3-3---------
                   
D|--------------------|
A|--------------------|
F|--------------------|
C|--------------------|
G|--------------------|
C|-0-1---3-5--3-5--5--|

Pré-Chorus (2x):

(Guitarra 1)

PM                       . . . . . . . . . .
D|-------------------------------------------
A|-------------------------------------------
F|-------------------------------------------
C|-------------------------------------------
G|-2-4-4-2-4-5-4-2-4---2---------------------
C|-2-4-4-2-4-5-4-2-4---2-4-4-4-4-4-4-4-4-4-4-
                   
D|------------------------|
A|------------------------|
F|------------------------|
C|------------------------|
G|-2-4-4-2-4-5-4-2-4---2\-|
C|-2-4-4-2-4-5-4-2-4---2\-|

(Guitarra 2)

D|---------------------------------------------------|
A|---------------------------------------------------|
F|---------------------------------------------------|
C|-9-11-11-9-11-12-11-9-11-9-11----------------------|
G|-7-9--9--7-9--10-9--7-9--7-9--9-9-9-9-9-9-9-9-9-9--|
C|---------------------------------------------------|

D|--------------------------------|
A|--------------------------------|
F|--------------------------------|
C|-9-11-11-9-11-12-11-9-11-9-11\--|
G|-7-9--9--7-9--10-9--7-9--7-9-\--|
C|--------------------------------|

Chorus:

PM                   . .
D|-------------------------------------
A|-------------------------------------
F|-------------------------------------
C|-0---1-----5/7\--------0---1-----5/7-
G|-0-x-1-(0)-3/5\----0-0-0-x-1-(0)-3/5-
C|-0-x-1-(0)---------0-0-0-x-1-(0)-----

PM                   . .
D|----------------------------------------------------|
A|----------------------------------------------------|
F|----------------------------------------------------|
C|-0---1-----5/7\--------0---1-----5/7----------------|
G|-0-x-1-(0)-3/5\----0-0-0-x-1-(0)-3/5-x-3-3-x-3-3--3-|
C|-0-x-1-(0)---------0-0-0-x-1-(0)-----x-3-3-x-3-3--3-|

Verso:

PM       . . . . . . . . .                   
D|---------------------------------
A|---------------------------------
F|---------------------------------
C|---------------------------------
G|---------------------------------
C|-0-1---3-3-3-3-3-3-3-3-3---------
                   
D|--------------------|
A|--------------------|
F|--------------------|
C|--------------------|
G|--------------------|
C|-0-1---3-5--3-5--5--|

Pré-Chorus (2x):

(Guitarra 1)

PM                       . . . . . . . . . .
D|-------------------------------------------
A|-------------------------------------------
F|-------------------------------------------
C|-------------------------------------------
G|-2-4-4-2-4-5-4-2-4---2---------------------
C|-2-4-4-2-4-5-4-2-4---2-4-4-4-4-4-4-4-4-4-4-
                   
D|------------------------|
A|------------------------|
F|------------------------|
C|------------------------|
G|-2-4-4-2-4-5-4-2-4---2\-|
C|-2-4-4-2-4-5-4-2-4---2\-|

(Guitarra 2)

D|---------------------------------------------------|
A|---------------------------------------------------|
F|---------------------------------------------------|
C|-9-11-11-9-11-12-11-9-11-9-11----------------------|
G|-7-9--9--7-9--10-9--7-9--7-9--9-9-9-9-9-9-9-9-9-9--|
C|---------------------------------------------------|

D|--------------------------------|
A|--------------------------------|
F|--------------------------------|
C|-9-11-11-9-11-12-11-9-11-9-11\--|
G|-7-9--9--7-9--10-9--7-9--7-9-\--|
C|--------------------------------|

Chorus:

PM                   . .
D|-------------------------------------
A|-------------------------------------
F|-------------------------------------
C|-0---1-----5/7\--------0---1-----5/7-
G|-0-x-1-(0)-3/5\----0-0-0-x-1-(0)-3/5-
C|-0-x-1-(0)---------0-0-0-x-1-(0)-----

PM                   . .
D|----------------------------------------------------|
A|----------------------------------------------------|
F|----------------------------------------------------|
C|-0---1-----5/7\--------0---1-----5/7----------------|
G|-0-x-1-(0)-3/5\----0-0-0-x-1-(0)-3/5-x-3-3-x-3-3--3-|
C|-0-x-1-(0)---------0-0-0-x-1-(0)-----x-3-3-x-3-3--3-|

Composição de KMFDM
Colaboração e revisão:
  • Leonardo Ciriberto
8 exibições
    • ½ Tom
    • A
    • Bb
    • B
    • C
    • Db
    • D
    • Eb
    • E
    • F
    • F#
    • G
    • Ab
  • Adicionar à lista

    0 comentários

    Ver todos os comentários

    Conseguiu tocar?

    1 Tocaram 0 Ainda não

    Grave um vídeo tocando Free Your Hate e nos envie!

    00:00 / 00:00
    outros vídeos desta música
    repetir qualidade Automático
    Outros vídeos desta música
    00:00 / 00:00
    Automático

    Cifra Club Pro

    Aproveite o Cifra Club com benefícios exclusivos e sem anúncios
    Cifra Club Pro
    Aproveite o Cifra Club com benefícios exclusivos e sem anúncios
    OK