Cifra Club

You

Koda Kumi

Cifra: Principal (violão e guitarra)
tom: Eb
3x Cm7 Ab7M Eb Gm7/D
   Cm7 Ab7M Bb Eb

   Cm7     Ab7M   Bb         Eb Gm7/D
Shiroi iki ga   fuyu wo tsugeru
 Cm7          Ab7M           Bb      Eb Gm7/D
Kimi no machi ni wa mou yuki ga futteru
  Cm7    Ab7M   Bb       Eb Gm7/D
Tooku tooku   kanjiru no wa
   Cm7      Ab7M        Bb       Eb
Kyori nanka ja naku kokoro ga omou

       Fm7               Gm7
Futari no negai wa itsukara ka zutto
Ab7M                 Gm7    Cm7
Watashi dake no mono ni nari
      Fm7              Gm7
Soredemo issho ni itai no wa kitto
Dm7               G7sus4 G7
Yowasa nanka ja nai yo ne

     Cm7  Ab7M Bb         Eb Gm7/D
Kimi to miru kono keshiki ga
    Cm7 Ab7M   Bb         Eb Gm7/D
Aru naraba   nanimo ira nai
     Cm7  Ab7M Bb         Eb Gm7/D
Kimi ga inai kono keshiki wa
  Cm7        Ab7M       Bb       Eb
Yuki no naka de miru tomatta sekai

  Cm7    C11     Bb/Ab Ab        Cm7    C11     Bb/Ab Ab
E|----------------4--4--4~~----------------------4--4--4~~
A|-3~~----3~~---3----------3-5----3~~----3~~---3----------
D|-5~~3-5-3~~--3--3--3--6~~-------5~~3-5-3~~--3--3--3--6~~
G|-3~~----3~~-3---3--3--5~~-----3-3~~----3~~-3---3--3--5~~
B|-4~~3-4-3~~4----3--3--4~~-------4~~3-4-3~~4----3--3--4~~
e|--------------------------------------------------------

 Cm7       Ab7M Bb         Eb Gm7/D
Anna ni mo sou ano toki ni wa
     Cm7         Ab7M      Bb     Eb Gm7/D
Koko ni shika shiawase nai to omotta
     Cm7       Ab7M Bb         Eb Gm7/D
Hito wa dare demo aishita hito wo
  Cm7       Ab7M            Bb     Eb
Wasure mata hoka no hito wo aiseru no?

      Fm7               Gm7
Motomoto awa nai futari ga koushite
  Ab7M          Gm7    Cm7
Hitotsu ni natteta kedo
     Fm7                Gm7       
Otagai ayumi yoru sasai na doryoku wo
Dm7              G7sus4 G7
Sore ga dekinakattan da ne

     Cm7  Ab7M Bb         Eb Gm7/D
Kimi to miru kono keshiki ga
    Cm7 Ab7M   Bb         Eb Gm7/D
Aru naraba   nanimo ira nai
     Cm7  Ab7M Bb         Eb Gm7/D
Kimi ga inai kono keshiki wa
  Cm7        Ab7M      Bb        Eb
Yuki no naka de miru tomatta sekai

Fm7 Gm7 
Ab7M Gm7
Fm7 Gm7 
Cm7 Bbm7 Eb

  Eb             E7M F#/E                   Ebm7             Abm7
E|-----------------------------------------------------------------
A|-----------------------------------------------------------------
D|-6---8---9--------------------------------------8--6--9----------
G|-------------6---8~~~------------------------------------6---8~--
B|--------------------------------------------7~-------------------
e|---------------------6~~~---6-6-6---7---9------------------------

  A7M                                   F#sus4          Absus4 Ab
E|-----------------------------------------------------------------
A|-----------------------------------------------------------------
D|------------------------------11---8---11~~~----8-10-11----------
G|-6---8---9~~~-------------9-----------------------------8~~------
B|-----------------9-10-9------------------------------------9~~~--
e|-----------------------------------------------------------------

     C#m7  A7M  B         E Abm7/Eb
Kimi to miru kono keshiki ga
    C#m7 Ab7M   B          E  Abm7/Eb
Aru naraba    nanimo ira nai
     C#m7  Ab7M B         E Abm7/Eb
Kimi ga inai kono keshiki wa
  C#m7       Ab7M      B         E Abm7/Eb
Yuki no naka de miru tomatta sekai

  C#m7 A7M  B         E Abm7/Eb
Aitai  yo aitai kimi ni
    C#m7 A7M  B          E Abm7/Eb
Korekara mo wasurerare nai
     C#m7 A7M  B        E Abm7/Eb
Kono yuki totomo ni chitta
   C#m7  A7M      B        E 
Hakanai omoi wo mune ni daite

F#m7 Abm7 A7M Ab7M
F#m7 Abm7 Abm/C#
00:00 / 00:00
Outros vídeos desta música
Repetir
Outros vídeos desta música
Composição de Kazuya Yoko / Koda Kumi
Colaboração e revisão:
  • Thiago Barbosa
519 exibições
    • ½ Tom
    • A
    • Bb
    • B
    • C
    • Db
    • D
    • Eb
    • E
    • F
    • F#
    • G
    • Ab
  • Adicionar à lista

    0 comentários

    Ver todos os comentários

    Conseguiu tocar?

    0 Tocaram 0 Ainda não

    Grave um vídeo tocando You e nos envie!

    00:00 / 00:00

    Cifra Club Pro

    Aproveite o Cifra Club com benefícios exclusivos e sem anúncios
    Cifra Club Pro
    Aproveite o Cifra Club com benefícios exclusivos e sem anúncios
    OK