Cifra Club

Reino

Konai

Cifra: Principal (violão e guitarra)
tom: G
[Intro] G  A  Bm

     G                               F#m             Bm
E|---------------------------------------------------------|
B|---------------------------------------------------3---3-|
G|---4---4---4---4---4---4---4---4---2---2---2---2---------|
D|---------------------------------------------------------|
A|-------------------------------------------------2---2---|
E|-3---3---3---3---3---3---3---3---2---2---2---2-----------|

     A
E|---------------------------------------------------------|
B|---2---2-------------------------------------------------|
G|---------------------------------------------------------|
D|---------------------------------------------------------|
A|-0---0---------------------------------------------------|
E|---------------------------------------------------------|

G
E se o mundo
      F#m          Bm  A  G
Te visse como eu te vejo
              F#m
Tu seria a rainha
      Bm     A   G 
De todo esse reino
F#m  Bm  A  G 
Reino

G 
Nem sei se tu vai voltar
                F#m
Não quero incomodar      
                 Bm   A  G
Só me resta esperar por ti
         
E se você aceitar
               F#m
Não vou te magoar
      Bm     A      G 
Cê sabe, ainda tô aqui
F#m    Bm  A  G
(Ainda tô aqui)

G
Amor
                 F#m              Bm  A  G
Quando a gente briga, tudo fica mal

E eu sou
               F#m
O primeiro a ligar
              Bm  A  G
Isso já e natural

G
E que tu é a rainha do meu reino
                F#m
Que tem meu coração
                              Bm  A  G
E que tu é a rainha do meu-
      F#m  Bm  A  G     F#m  Bm  A  G
Reino
00:00 / 00:00
Outros vídeos desta música
Repetir
Outros vídeos desta música
Composição de Konai
Colaboração e revisão:
24.682 exibições
    • ½ Tom
    • A
    • Bb
    • B
    • C
    • Db
    • D
    • Eb
    • E
    • F
    • F#
    • G
    • Ab
  • Adicionar à lista

    0 comentários

    Ver todos os comentários

    Conseguiu tocar?

    27 Tocaram 6 Ainda não

    Grave um vídeo tocando Reino e nos envie!

    Entre para oCifra Club PRO

    Tenha acesso a benefícios exclusivos no App e no Site

    • Chega de anúncios

    • Prioridade de compra em lançamentos

    • Mais recursos no app do Afinador

    • Atendimento Prioritário

    • Descontos nos produtos Cifra Club

    • Ajude a produzir mais conteúdo

    00:00 / 00:00

    Cifra Club Pro

    Aproveite o Cifra Club com benefícios exclusivos e sem anúncios
    Cifra Club Pro
    Aproveite o Cifra Club com benefícios exclusivos e sem anúncios
    OK