Notificações Amigos pendentes

      Korn

      Embrace

      2.143 exibições
      Tom: A
      Tuning: 1 Step Down (A,D,G,C,F,A,D)
      INTRO:
      
      |-----------------------|
      |-----------------------|
      |-----------------------|
      |-----------------------|
      |-----------------------|
      |---5-5/9-9---5-5/10-10-|
      |-3---------3-----------|
      
      
      INTRO 2:
      
      |------------|
      |------------|
      |------------|
      |------------|
      |------------|
      |-3-2--2-2-2-|
      |-1-0--0-0-0-|
      
      
      VERSE:
      
      |----------|
      |----------|
      |----------|
      |----------|
      |----------|
      |-3-2--2-2-|
      |-1-0--0-0-|
      
      
      BRIDGE: (guitar 1)
      
      |--------------------------------------|
      |--------------------------------------|
      |--------------------------------------|
      |--------------------------------------|
      |---5/6\5-5/6----------5/6\5-5/6-------|
      |-----------------2--------------------|
      |-3-----------3-4----3-----------3-6-4-|
      
      
      |--------------------------------------|
      |--------------------------------------|
      |--------------------------------------|
      |--------------------------------------|
      |---5/6\5-5/6----------5/6\5-5/6-----6-|
      |-----------------2----------------5---|
      |-3-----------3-4----3-----------3-----|
      
      
      BRIDGE: (guitar 2) (trem. - tremolo pick)
      
      |----------------------|    |--------------------------------|
      |----------------------|    |--------------------------------|
      |-14(trem.)--13(trem.)-|play|-14(trem.)--13(trem.)-19(trem.)-|
      |--X----------X--------| 3X |--X----------X---------X--------|
      |-12---------11--------|then|-12---------11--------17--------|
      |----------------------|    |--------------------------------|
      |----------------------|    |--------------------------------|
      
      
      CHORUS:
      
      |------------------|
      |------------------|
      |------------------|
      |-10-9-8-----------|
      |-10-9-8-------8-7-|
      |--8-7-6-5h6p5-8-7-|
      |--------------6-5-|
      
      
      INTERLUDE:
      
      |-----------------------------------|
      |-----------------------------------|
      |-10(tremolo pick)--7(tremolo pick)-|
      |--X----------------X---------------|
      |--8----------------5---------------|
      |-----------------------------------|
      |-----------------------------------|
      
        Composição: Korn / KornColaboração e revisão:
        • CAU

        Comentários 0

        140 .
        140 cancelar

        conseguiu tocar?

        covers

        Grave um vídeo tocando Embrace e mande pra gente!

        Ex.: http://www.youtube.com/watch?v=0IvSvIwGdwk
        ver covers de outras músicas »
        0:00 / 0:00

        Capítulos

          1 versão de violão dificuldade exibições contribuição e correção
          1 versão de guitarra dificuldade exibições contribuição e correção
          1 versão de cavaco dificuldade exibições contribuição e correção
          1 versão de teclado dificuldade exibições contribuição e correção
          1 versão de baixo exibições contribuição e correção
          2 versões de Guitar Proformatodownloadscontribuição
          play/pausefechar subir/descer velocidade
          6ª corda E5ª corda A4ª corda D3ª corda G2ª corda B1ª corda E
            acordes
            publicidade
            fechar
            ok