Cifra Club

Computer World

Kraftwerk

Cifra: Principal (violão e guitarra)
Selo Cifra Club: esta cifra foi revisada para atender aos critérios oficiais da nossa Equipe de Qualidade.
tom: E
  1 + 2 + 3 + 4 +
E|----------------|
B|----------------|
G|----------------| play
D|----------------| x4
A|----------------|
E|0-0-0-0-0-0-0-0-|

  1 e + a 2 e + a 3 e + a 4 e + a  1 e + a 2 e + a 3 e + a 4 e + a
E|--------------------------------|--------------------------------|
B|--------------------------------|--------------------------------|
G|----------------------------9---|--------------------------------| play
D|--------------------------------|--------------------------------| x1
A|------5-7-----------------------|------5-7-----------------------|
E|0---0-------0---0---0---0-------| 0---0-------0---0---0---0---0---|

  1 e + a 2 e + a 3 e + a 4 e + a  1 e + a 2 e + a 3 e + a 4 e + a
E|--------------------------------|----------------------------3---|
B|--------------------------------|--------------------------------|
G|----------------------------9---|--------------------------------| play
D|--------------------------------|--------------------------------| x1
A|------5-7-----------------------|------5-7-----------------------|
E|0---0-------0---0---0---0-------| 0---0-------0---0---0---0-------|

  1 + 2 + 3 + 4 +  1 + 2 + 3 + 4 +  1 + 2 + 3 + 4 +  1 + 2 + 3 + 4 +
E|----------------|----------------|----------------|--------------3-|
B|3-----5---------|----------------|----------------|----------------|
G|----4-----------|----------------|----------------|----------------| play
D|----------------|----------------|----------------|----------------| x1
A|----------------|----------------|----------------|----------------|
E|----------------|----------------|----------------|----------------|

  1 + 2 + 3 + 4 +  1 + 2 + 3 + 4 +  1 + 2 + 3 + 4 +  1 + 2 + 3 + 4 +
E|----------------|----------------|----------------|--------------8-|
B|3-----5---------|----------------|----------------|----------------|
G|----4-----------|----------------|----------------|----------------| play
D|----------------|----------------|----------------|----------------| x1
A|----------------|----------------|----------------|----------------|
E|----------------|----------------|----------------|----------------|

  1 + 2 + 3 + 4 +  1 + 2 + 3 + 4 +  1 + 2 + 3 + 4 +  1 + 2 + 3 + 4 +
E|----------------|----------------|----------------|--------------3-|
B|8-----10--------|----------------|----------------|----------------|
G|----9-----------|----------------|----------------|----------------| play
D|----------------|----------------|----------------|----------------| x1
A|----------------|----------------|----------------|----------------|
E|----------------|----------------|----------------|----------------|

  1 + 2 + 3 + 4 +  1 + 2 + 3 + 4 +  1 + 2 + 3 + 4 +  1 + 2 + 3 + 4 +
E|----------------|----------------|----------------|----------------|
B|3-----5---------|----------------|----------------|----------------|
G|----4-----------|----------------|----------------|----------------| play
D|----------------|----------------|----------------|----------------| x1
A|----------------|----------------|----------------|----------------|
E|----------------|----------------|----------------|----------------|


[Verse 1]

  1  +  2  +  3  +  4  +   1  +  2  +  3  +  4  +   1  +  2  +  3  +  4  +   1  +  2  +  3  +  4  +  
E|------------------------|------------------------|------------------------|------------------------|
B|------10-11----------11-| 10----------------------|------10-11----------11-|10----------------------|
G|12----------------------|------10-12-------------| 12----------------------|------10-12-------------| play
D|------------------------|------------------12----|------------------------|------------------------| x2
A|------------------------|------------------------|------------------------|------------------------|
E|------------------------|------------------------|------------------------|------------------------|

  1  +  2  +  3  +  4  +   1  +  2  +  3  +  4  +   1  +  2  +  3  +  4  +   1  +  2  +  3  +  4  +  
E|---------------------18-| 17-------15-------------|---------------------18-|17-------15-------------|
B|------10-11-------------|------18----------15----|------10-11-------------|------18----------------|
G|12----------------------|------------------------| 12----------------------|------------------------| play
D|------------------------|------------------------|------------------------|------------------------| x1
A|------------------------|------------------------|------------------------|------------------------|
E|------------------------|------------------------|------------------------|------------------------|

  1  +  2  +  3  +  4  +   1  +  2  +  3  +  4  +   1  +  2  +  3  +  4  +   1  +  2  +  3  +  4  +  
E|---------------------18-| 17-------15-------------|---------------------18-|17-------15----------3--|
B|------10-11-------------|------18----------15----|------10-11-------------|------18----------------|
G|12----------------------|------------------------| 12----------------------|------------------------| play
D|------------------------|------------------------|------------------------|------------------------| x1
A|------------------------|------------------------|------------------------|------------------------|
E|------------------------|------------------------|------------------------|------------------------|


[Chorus]

  1 + 2 + 3 + 4 +  1 + 2 + 3 + 4 +  1 + 2 + 3 + 4 +  1 + 2 + 3 + 4 +
E|----------------|----------------|----------------|--------------3-|
B|3-----5---------|----------------|----------------|----------------|
G|----4-----------|----------------|----------------|----------------| play
D|----------------|----------------|----------------|----------------| x1
A|----------------|----------------|----------------|----------------|
E|----------------|----------------|----------------|----------------|

  1 + 2 + 3 + 4 +  1 + 2 + 3 + 4 +  1 + 2 + 3 + 4 +  1 + 2 + 3 + 4 +
E|----------------|----------------|----------------|--------------8-|
B|3-----5---------|----------------|----------------|----------------|
G|----4-----------|----------------|----------------|----------------| play
D|----------------|----------------|----------------|----------------| x1
A|----------------|----------------|----------------|----------------|
E|----------------|----------------|----------------|----------------|

  1 + 2 + 3 + 4 +  1 + 2 + 3 + 4 +  1 + 2 + 3 + 4 +  1 + 2 + 3 + 4 +
E|----------------|----------------|----------------|--------------3-|
B|8-----10--------|----------------|----------------|----------------|
G|----9-----------|----------------|----------------|----------------| play
D|----------------|----------------|----------------|----------------| x1
A|----------------|----------------|----------------|----------------|
E|----------------|----------------|----------------|----------------|

  1 + 2 + 3 + 4 +  1 + 2 + 3 + 4 +  1 + 2 + 3 + 4 +  1 + 2 + 3 + 4 +
E|----------------|----------------|----------------|----------------|
B|3-----5---------|----------------|----------------|----------------|
G|----4-----------|----------------|----------------|----------------| play
D|----------------|----------------|----------------|----------------| x1
A|----------------|----------------|----------------|----------------|
E|----------------|----------------|----------------|----------------|


[Verse 2]

  1  +  2  +  3  +  4  +   1  +  2  +  3  +  4  +   1  +  2  +  3  +  4  +   1  +  2  +  3  +  4  +  
E|------------------------|------------------------|------------------------|------------------------|
B|------10-11----------11-| 10----------------------|------10-11----------11-|10----------------------|
G|12----------------------|------10-12-------------| 12----------------------|------10-12-------------| play
D|------------------------|------------------12----|------------------------|------------------------| x2
A|------------------------|------------------------|------------------------|------------------------|
E|------------------------|------------------------|------------------------|------------------------|

  1  +  2  +  3  +  4  +   1  +  2  +  3  +  4  +   1  +  2  +  3  +  4  +   1  +  2  +  3  +  4  +  
E|---------------------18-| 17-------15-------------|---------------------18-|17-------15-------------|
B|------10-11-------------|------18----------15----|------10-11-------------|------18----------------|
G|12----------------------|------------------------| 12----------------------|------------------------| play
D|------------------------|------------------------|------------------------|------------------------| x1
A|------------------------|------------------------|------------------------|------------------------|
E|------------------------|------------------------|------------------------|------------------------|

  1  +  2  +  3  +  4  +   1  +  2  +  3  +  4  +   1  +  2  +  3  +  4  +   1  +  2  +  3  +  4  +  
E|---------------------18-| 17-------15-------------|---------------------18-|17-------15----------3--|
B|------10-11-------------|------18----------15----|------10-11-------------|------18----------------|
G|12----------------------|------------------------| 12----------------------|------------------------| play
D|------------------------|------------------------|------------------------|------------------------| x1
A|------------------------|------------------------|------------------------|------------------------|
E|------------------------|------------------------|------------------------|------------------------|


[Chorus]

  1 + 2 + 3 + 4 +  1 + 2 + 3 + 4 +  1 + 2 + 3 + 4 +  1 + 2 + 3 + 4 +
E|----------------|----------------|----------------|--------------3-|
B|3-----5---------|----------------|----------------|----------------|
G|----4-----------|----------------|----------------|----------------| play
D|----------------|----------------|----------------|----------------| x1
A|----------------|----------------|----------------|----------------|
E|----------------|----------------|----------------|----------------|

  1 + 2 + 3 + 4 +  1 + 2 + 3 + 4 +  1 + 2 + 3 + 4 +  1 + 2 + 3 + 4 +
E|----------------|----------------|----------------|--------------8-|
B|3-----5---------|----------------|----------------|----------------|
G|----4-----------|----------------|----------------|----------------| play
D|----------------|----------------|----------------|----------------| x1
A|----------------|----------------|----------------|----------------|
E|----------------|----------------|----------------|----------------|

  1 + 2 + 3 + 4 +  1 + 2 + 3 + 4 +  1 + 2 + 3 + 4 +  1 + 2 + 3 + 4 +
E|----------------|----------------|----------------|--------------3-|
B|8-----10--------|----------------|----------------|----------------|
G|----9-----------|----------------|----------------|----------------| play
D|----------------|----------------|----------------|----------------| x1
A|----------------|----------------|----------------|----------------|
E|----------------|----------------|----------------|----------------|

  1 + 2 + 3 + 4 +  1 + 2 + 3 + 4 +  1 + 2 + 3 + 4 +  1 + 2 + 3 + 4 +
E|----------------|----------------|----------------|----------------|
B|3-----5---------|----------------|----------------|----------------|
G|----4-----------|----------------|----------------|----------------| play
D|----------------|----------------|----------------|----------------| x1
A|----------------|----------------|----------------|----------------|
E|----------------|----------------|----------------|----------------|


[Bridge]

  1  +  2  +  3  +  4  +   1  +  2  +  3  +  4  +   1  +  2  +  3  +  4  +   1  +  2  +  3  +  4  +
E|------------------------|------------------------|------------------------|------------------------|
B|---------------------11-| 10----------------------|---------------------11-|10----------------------|
G|------------------------|------10-12-------------|------------------------|------10-12-------------| play
D|------------------------|------------------12----|------------------------|------------------------| x2
A|10----12-13-------------|------------------------| 10----12-13-------------|------------------------|
E|------------------------|------------------------|------------------------|------------------------|

  1  +  2  +  3  +  4  +   1  +  2  +  3  +  4  +   1  +  2  +  3  +  4  +   1  +  2  +  3  +  4  +  
E|---------------------18-| 17-------15-------------|---------------------18-|17-------15-------------|
B|------10-11-------------|------18----------15----|------10-11-------------|------18----------------|
G|12----------------------|------------------------| 12----------------------|------------------------| play
D|------------------------|------------------------|------------------------|------------------------| x1
A|------------------------|------------------------|------------------------|------------------------|
E|------------------------|------------------------|------------------------|------------------------|

  1  +  2  +  3  +  4  +   1  +  2  +  3  +  4  +   1  +  2  +  3  +  4  +   1  +  2  +  3  +  4  +  
E|---------------------18-| 17-------15-------------|---------------------22-|20-------------------3--|
B|------10-11-------------|------18----------15----|------10-11-------------|------22-20-------------|
G|12----------------------|------------------------| 12----------------------|------------------------| play
D|------------------------|------------------------|------------------------|------------------------| x1
A|------------------------|------------------------|------------------------|------------------------|
E|------------------------|------------------------|------------------------|------------------------|

  1 + 2 + 3 + 4 +  1 + 2 + 3 + 4 +  1 + 2 + 3 + 4 +  1 + 2 + 3 + 4 +
E|----------------|----------------|----------------|--------------3-|
B|3-----5---------|----------------|----------------|----------------|
G|----4-----------|----------------|----------------|----------------| play
D|----------------|----------------|----------------|----------------| x1
A|----------------|----------------|----------------|----------------|
E|----------------|----------------|----------------|----------------|

  1 + 2 + 3 + 4 +  1 + 2 + 3 + 4 +  1 + 2 + 3 + 4 +  1 + 2 + 3 + 4 +
E|----------------|----------------|----------------|----------------|
B|3-----5---------|----------------|----------------|----------------|
G|----4-----------|----------------|----------------|--------------5-| play
D|----------------|----------------|----------------|----------------| x1
A|----------------|----------------|----------------|----------------|
E|----------------|----------------|----------------|----------------|

  1 + 2 + 3 + 4 +  1 + 2 + 3 + 4 +  1 + 2 + 3 + 4 +  1 + 2 + 3 + 4 +
E|----------------|----------------|----------------|--------------3-|
B|----------------|----------------|----------------|----------------|
G|------2---------|----------------|----------------|----------------| play
D|5---2-----------|----------------|----------------|----------------| x1
A|----------------|----------------|----------------|----------------|
E|----------------|----------------|----------------|----------------|

  1 + 2 + 3 + 4 +  1 + 2 + 3 + 4 +  1 + 2 + 3 + 4 +  1 + 2 + 3 + 4 +
E|----------------|----------------|----------------|----------------|
B|3-----5---------|----------------|----------------|----------------|
G|----4-----------|----------------|----------------|----------------| play
D|----------------|----------------|----------------|----------------| x1
A|----------------|----------------|----------------|----------------|
E|----------------|----------------|----------------|----------------|


[Verse 3]

  1  +  2  +  3  +  4  +   1  +  2  +  3  +  4  +   1  +  2  +  3  +  4  +   1  +  2  +  3  +  4  +  
E|15----17-18----------18-| 17-------15-------------|15----17-18----------18-|17-------15-------------|
B|------------------------|------18----------15----|------------------------|------18----------------|
G|------------------------|------------------------|------------------------|------------------------| play
D|------------------------|------------------------|------------------------|------------------------| x1
A|------------------------|------------------------|------------------------|------------------------|
E|------------------------|------------------------|------------------------|------------------------|

  1  +  2  +  3  +  4  +   1  +  2  +  3  +  4  +   1  +  2  +  3  +  4  +   1  +  2  +  3  +  4  +  
E|15----17-18----------18-| 17-------15-------------|15----17-18----------18-|17-------15-------------|
B|------------------------|------18-------15-------|------------------------|------18----------------|
G|------------------------|------------------------|------------------------|------------------------| play
D|------------------------|------------------------|------------------------|------------------------| x1
A|------------------------|------------------------|------------------------|------------------------|
E|------------------------|------------------------|------------------------|------------------------|

  1  +  2  +  3  +  4  +   1  +  2  +  3  +  4  +   1  +  2  +  3  +  4  +   1  +  2  +  3  +  4  +
E|---------------------18-| 17-------15-------------|---------------------18-|17-------15-------------|
B|------10-11-------------|------18----------15----|------10-11-------------|------18----------------|
G|12----------------------|------------------------| 12----------------------|------------------------| play
D|------------------------|------------------------|------------------------|------------------------| x1
A|------------------------|------------------------|------------------------|------------------------|
E|------------------------|------------------------|------------------------|------------------------|

  1  +  2  +  3  +  4  +   1  +  2  +  3  +  4  +   1  +  2  +  3  +  4  +   1  +  2  +  3  +  4  +
E|---------------------18-| 17-------15-------------|---------------------22-|20-------------------3--|
B|------10-11-------------|------18-------15-------|------10-11-------------|------22-20-------------|
G|12----------------------|------------------------| 12----------------------|------------------------| play
D|------------------------|------------------------|------------------------|------------------------| x1
A|------------------------|------------------------|------------------------|------------------------|
E|------------------------|------------------------|------------------------|------------------------|


[Chorus]

  1 + 2 + 3 + 4 +  1 + 2 + 3 + 4 +  1 + 2 + 3 + 4 +  1 + 2 + 3 + 4 +
E|----------------|----------------|----------------|--------------3-|
B|3-----5---------|----------------|----------------|----------------|
G|----4-----------|----------------|----------------|----------------| play
D|----------------|----------------|----------------|----------------| x1
A|----------------|----------------|----------------|----------------|
E|----------------|----------------|----------------|----------------|

  1 + 2 + 3 + 4 +  1 + 2 + 3 + 4 +  1 + 2 + 3 + 4 +  1 + 2 + 3 + 4 +
E|----------------|----------------|----------------|--------------8-|
B|3-----5---------|----------------|----------------|----------------|
G|----4-----------|----------------|----------------|----------------| play
D|----------------|----------------|----------------|----------------| x1
A|----------------|----------------|----------------|----------------|
E|----------------|----------------|----------------|----------------|

  1 + 2 + 3 + 4 +  1 + 2 + 3 + 4 +  1 + 2 + 3 + 4 +  1 + 2 + 3 + 4 +
E|----------------|----------------|----------------|--------------15|
B|8-----10--------|----------------|----------------|----------------|
G|----9-----------|----------------|----------------|----------------| play
D|----------------|----------------|----------------|----------------| x1
A|----------------|----------------|----------------|----------------|
E|----------------|----------------|----------------|----------------|

  1 + 2 + 3 + 4 +  1 + 2 + 3 + 4 +  1 + 2 + 3 + 4 +  1 + 2 + 3 + 4 +
E|----------------|----------------|----------------|----------------|
B|15----17--------|----------------|----------------|----------------|
G|----16----------|----------------|----------------|----------------| play
D|----------------|----------------|----------------|----------------| x1
A|----------------|----------------|----------------|----------------|
E|----------------|----------------|----------------|----------------|


[Outro]

  1  +  2  +  3  +  4  +   1  +  2  +  3  +  4  +   1  +  2  +  3  +  4  +   1  +  2  +  3  +  4  +  
E|------------------------|------------------------|------------------------|------------------------|
B|------10-11----------11-| 10----------------------|------10-11----------11-|10----------------------|
G|12----------------------|------10-12-------------| 12----------------------|------10-12-------------| play
D|------------------------|---------------12-------|------------------------|------------------------| x1
A|------------------------|------------------------|------------------------|------------------------|
E|------------------------|------------------------|------------------------|------------------------|

  1  +  2  +  3  +  4  +   1  +  2  +  3  +  4  +   1  +  2  +  3  +  4  +   1  +  2  +  3  +  4  +  
E|------------------------|------------------------|---------------------10-|------------------------|
B|------10-11----------11-| 10----------------------|------10-11-------------|13----10----------------|
G|12----------------------|------10-12-------------| 12----------------------|---------12-------------| play
D|------------------------|---------------12-------|------------------------|------------------------| x1
A|------------------------|------------------------|------------------------|------------------------|
E|------------------------|------------------------|------------------------|------------------------|

  1  +  2  +  3  +  4  +   1  +  2  +  3  +  4  +   1  +  2  +  3  +  4  +   1  +  2  +  3  +  4  +  
E|15----17-18----------18-| 17-------15-------------|15----17-18----------18-|17-------15-------------||
B|------------------------|------18-------15-------|------------------------|------18----------------| |
G|------------------------|------------------------|------------------------|------------------------| | play
D|------------------------|------------------------|------------------------|------------------------| |  x1
A|------------------------|------------------------|------------------------|------------------------| |
E|------------------------|------------------------|------------------------|------------------------||
Outros vídeos desta música
    24 exibições
      • ½ Tom
      • A
      • Bb
      • B
      • C
      • Db
      • D
      • Eb
      • E
      • F
      • F#
      • G
      • Ab
    • Adicionar à lista

    Afinação da cifra

    Afinador online

      0 comentários

      Ver todos os comentários

      Entre para o Cifra Club PRO

      Tenha acesso a benefícios exclusivos no App e no Site

      • Chega de anúncios

      • Mais recursos no app do Afinador

      • Atendimento Prioritário

      • Aumente seu limite de lista

      • Ajude a produzir mais conteúdo

      Cifra Club Pro

      Aproveite o Cifra Club com benefícios exclusivos e sem anúncios
      Cifra Club Pro
      Aproveite o Cifra Club com benefícios exclusivos e sem anúncios
      OK