Cifra Club

The Model

Kraftwerk

Cifra: Versão 3 (violão e guitarra)
Selo Cifra Club: esta cifra foi revisada para atender aos critérios oficiais da nossa Equipe de Qualidade.
tom: E
AVISO:

A repetição de certas partes (ou toques) é proposital, unicamente para acompanhar 
o ritmo da música, já que essa transcrição para violão e guitarra partiu 
de uma música que é completamente sintetizada, tornando-se quase uma "versão acústica.” 
Assim, a música consegue um efeito melhor com até três instrumentos. 
(E quem quiser corrigi-la, à vontade, hehe.)

Parte correspondente ao Baixo (Segue como base por toda a música)

E|--------------------------------------------------------------
B|--------------------------------------------------------------
G|--------------------------------------------------------------
D|--------------------------------------------------------------
A|---0-0---0-3-0-3----------------------3-3---------------------
E|-0-----------------3---0----0-3-0-3-0-------------------------

(por trás do verso entram as transcrições abaixo)

Sie ist ein Modell und sie sieht gut aus
E|--------------------------------------------------------------
B|--------------------------------------------------------------
G|--------------------------------------------------------------
D|--------------------------------------------------------------
A|---0--3-2-0-3-------------------------------------------------
E|-0-----------------3---0--------------------------------------
(essa parte aparece junto ao primeiro riff e também entra logo após o verso; 
faz-se necessário o uso de dois violões)
E|--------------------------------------------------------------
B|--------------------------------------------------------------
G|--------------5-4s2s4-----------------------------------------
D|-------0--9----------5-0--------------------------------------
A|--------------------------------------------------------------
E|--------------------------------------------------------------

Ich nehme sie heut' gerne mit zu mir nach Haus
E|--------------------------------------------------------------
B|--------------------------------------------------------------
G|--------------------------------------------------------------
D|--------------------------------------------------------------
A|---0--3-2-0-3-------------------------------------------------
E|-0-----------------3---0--------------------------------------

E|--------------------------------------------------------------
B|--------------------------------------------------------------
G|--------------5-4s2s4-----------------------------------------
D|-------0--9----------5-0--------------------------------------
A|--------------------------------------------------------------
E|-------------------------------------------------------------- (2x)

Sie wirkt so kuehl, and sie kommt niemand 'ran
E|--------------------------------------------------------------
B|--------------------------------------------------------------
G|--------------------------------------------------------------
D|--------------------------------------------------------------
A|---0--3-2-0-3-------------------------------------------------
E|-0-----------------3---0--------------------------------------

E|--------------------------------------------------------------
B|--------------------------------------------------------------
G|--------------5-4s2s4-----------------------------------------
D|-------0--9----------5-0--------------------------------------
A|--------------------------------------------------------------
E|-------------------------------------------------------------- (2x)

Doch vor der Kamera da zeigt sie was sie kann
E|--------------------------------------------------------------
B|--------------------------------------------------------------
G|--------------------------------------------------------------
D|--------------------------------------------------------------
A|---0--3-2-0-3-------------------------------------------------
E|-0-----------------3---0--------------------------------------

E|--------------------------------------------------------------
B|--------------------------------------------------------------
G|--------------5-4s2s4-----------------------------------------
D|-------0--9----------5-0--------------------------------------
A|--------------------------------------------------------------
E|-------------------------------------------------------------- (2x)

Aqui se coloca a parte do interlúdio, já que a música não tem um refrão falado

E|--------------------------------------------------------------
B|--------------------------------------------------------------
G|--------------------------------------------------------------
D|--------------------------------------------------------------
A|---3-3-3-3-3-3-3-2-2-2-2-2-2----------------------------------
E|-----------------------------3-0-0-0-0-0----------------------

E|--------------------------------------------------------------
B|--------------------------------------------------------------
G|-------------------------------------------2—--4-5------------
D|-----------------------------2-2-2-2-2-2-2--------------------
A|---3-3-3-3-3-3-3-2-2-2-2-2-2----------------------------------
E|--------------------------------------------------------------

Sie trinkt im Nachtklub immer Sekt (korrekt)
E|--------------------------------------------------------------
B|--------------------------------------------------------------
G|--------------------------------------------------------------
D|--------------------------------------------------------------
A|---0--3-2-0-3-------------------------------------------------
E|-0-----------------3---0--------------------------------------

E|--------------------------------------------------------------
B|--------------------------------------------------------------
G|--------------5-4s2s4-----------------------------------------
D|-------0--9----------5-0--------------------------------------
A|--------------------------------------------------------------
E|-------------------------------------------------------------- (2x)

Und hat hier alle Maenner abgecheckt
E|--------------------------------------------------------------
B|--------------------------------------------------------------
G|--------------------------------------------------------------
D|--------------------------------------------------------------
A|---0--3-2-0-3-------------------------------------------------
E|-0-----------------3---0--------------------------------------

E|--------------------------------------------------------------
B|--------------------------------------------------------------
G|--------------5-4s2s4-----------------------------------------
D|-------0--9----------5-0--------------------------------------
A|--------------------------------------------------------------
E|-------------------------------------------------------------- (2x)

A única diferença deste riff parta o outro é a seg. parte mais aguda.

Im Scheinwerferlicht ihr junges Laecheln strahlt
E|--------------------------------------------------------------
B|--------------------------------------------------------------
G|--------------------------------------------------------------
D|--------------------------------------------------------------
A|---0--3-2-0-3-------------------------------------------------
E|-0-----------------3---0--------------------------------------

E|------------8-7s5s7-------------------------------------------
B|-5----10------------8--5--------------------------------------
G|--------------------------------------------------------------
D|--------------------------------------------------------------
A|--------------------------------------------------------------
E|-------------------------------------------------------------- (2x)

Sie sieht gut aus und Schoenheit wird bezahlt
E|--------------------------------------------------------------
B|--------------------------------------------------------------
G|--------------------------------------------------------------
D|--------------------------------------------------------------
A|---0--3-2-0-3-------------------------------------------------
E|-0-----------------3---0--------------------------------------

E|------------8-7s5s7-------------------------------------------
B|-5----10------------8--5--------------------------------------
G|--------------------------------------------------------------
D|--------------------------------------------------------------
A|--------------------------------------------------------------
E|-------------------------------------------------------------- (2x)

Refrão (por assim dizer):

E|--------------------------------------------------------------
B|--------------------------------------------------------------
G|5-5-5-5-5-5-4-4-4-4-4-4---------------------------------------
D|------------------------7---5-5-5-5---------------------------
A|--------------------------------------------------------------
E|--------------------------------------------------------------

E|--------------------------------------------------------------
B|--------------------------------------------------------------
G|-------------------------------------------4--5-7-------------
D|-----------------------------5-5-5-5-5-5-5--------------------
A|---5-5-5-5-5-5-4-4-4-4-4-4------------------------------------
E|--------------------------------------------------------------

E|---12-9-7-9-12-9-12-13-12-9-7-9-12-10-------------------------
B|--------------------------------------------------------------
G|--------------------------------------------------------------
D|--------------------------------------------------------------
A|--------------------------------------------------------------
E|--------------------------------------------------------------

E|---12-9-7-9-12-9-12-13-12-9-7-9-12----------------------------
B|--------------------------------------------------------------
G|--------------------------------------------------------------
D|--------------------------------------------------------------
A|--------------------------------------------------------------
E|--------------------------------------------------------------

E|-15-12-9-7-9-12-9-12-13-12-9-7-9-12-10------------------------
B|--------------------------------------------------------------
G|--------------------------------------------------------------
D|--------------------------------------------------------------
A|--------------------------------------------------------------
E|--------------------------------------------------------------

E|---12-9-7-9-12-9-12-13-12-9-7-9-12-10-------------------------
B|--------------------------------------------------------------
G|--------------------------------------------------------------
D|--------------------------------------------------------------
A|--------------------------------------------------------------
E|--------------------------------------------------------------

E|--------------------------------------------------------------
B|--------------------------------------------------------------
G|5-5-5-5-5-5-4-4-4-4-4-4-------------5-7-----------------------
D|------------------------7---5-5-5-5---------------------------
A|--------------------------------------------------------------
E|--------------------------------------------------------------

E|-------------------4--5-7-------------------------------------
B|-------5-5-5-5-5----------------------------------------------
G|9-7s4-5-------------------------------------------------------
D|--------------------------------------------------------------
A|--------------------------------------------------------------
E|--------------------------------------------------------------

Sie stellt sich zu Schau fuer das Konsumprodukt
E|--------------------------------------------------------------
B|--------------------------------------------------------------
G|--------------------------------------------------------------
D|--------------------------------------------------------------
A|---0--3-2-0-3-------------------------------------------------
E|-0-----------------3---0--------------------------------------

E|------------8-7s5s7-------------------------------------------
B|-5----10------------8--5--------------------------------------
G|--------------------------------------------------------------
D|--------------------------------------------------------------
A|--------------------------------------------------------------
E|-------------------------------------------------------------- (2x)
Und wird von millionen Augen angeguckt
E|--------------------------------------------------------------
B|--------------------------------------------------------------
G|--------------------------------------------------------------
D|--------------------------------------------------------------
A|---0--3-2-0-3-------------------------------------------------
E|-0-----------------3---0--------------------------------------

E|------------8-7s5s7-------------------------------------------
B|-5----10------------8--5--------------------------------------
G|--------------------------------------------------------------
D|--------------------------------------------------------------
A|--------------------------------------------------------------
E|-------------------------------------------------------------- (2x)

Ihr neues Titelbild ist einfach Fabelhaft
E|--------------------------------------------------------------
B|--------------------------------------------------------------
G|--------------------------------------------------------------
D|--------------------------------------------------------------
A|---0--3-2-0-3-------------------------------------------------
E|-0-----------------3---0--------------------------------------

E|------------8-7s5s7-------------------------------------------
B|-5----10------------8--5--------------------------------------
G|--------------------------------------------------------------
D|--------------------------------------------------------------
A|--------------------------------------------------------------
E|-------------------------------------------------------------- (2x)

Ich muss sie wiedersehen, ich weiss sie hat's geschaft
E|--------------------------------------------------------------
B|--------------------------------------------------------------
G|--------------------------------------------------------------
D|--------------------------------------------------------------
A|---0--3-2-0-3-------------------------------------------------
E|-0-----------------3---0--------------------------------------

E|------------8-7s5s7-------------------------------------------
B|-5----10------------8--5--------------------------------------
G|--------------------------------------------------------------
D|--------------------------------------------------------------
A|--------------------------------------------------------------
E|-------------------------------------------------------------- (2x)

E|---12-9-7-9-12-9-12-13-12-9-7-9-12-10-------------------------
B|--------------------------------------------------------------
G|--------------------------------------------------------------
D|--------------------------------------------------------------
A|--------------------------------------------------------------
E|--------------------------------------------------------------

E|---12-9-7-9-12-9-12-13-12-9-7-9-12----------------------------
B|--------------------------------------------------------------
G|--------------------------------------------------------------
D|--------------------------------------------------------------
A|--------------------------------------------------------------
E|--------------------------------------------------------------

E|-15-12-9-7-9-12-9-12-13-12-9-7-9-12-10------------------------
B|--------------------------------------------------------------
G|--------------------------------------------------------------
D|--------------------------------------------------------------
A|--------------------------------------------------------------
E|--------------------------------------------------------------

E|---12-9-7-9-12-9-12-13-12-9-7-9-12-10-------------------------
B|--------------------------------------------------------------
G|--------------------------------------------------------------
D|--------------------------------------------------------------
A|--------------------------------------------------------------
E|--------------------------------------------------------------

E|----1616161616161616161616161616161616161616161616161616161616
B|--------------------------------------------------------------
G|--------------------------------------------------------------
D|--------------------------------------------------------------
A|--------------------------------------------------------------
E|--------------------------------------------------------------
Outros vídeos desta música
    376 exibições
      • ½ Tom
      • A
      • Bb
      • B
      • C
      • Db
      • D
      • Eb
      • E
      • F
      • F#
      • G
      • Ab
    • Adicionar à lista

    Afinação da cifra

    Afinador online

      0 comentários

      Ver todos os comentários

      Entre para o Cifra Club PRO

      Tenha acesso a benefícios exclusivos no App e no Site

      • Chega de anúncios

      • Badges exclusivas

      • Mais recursos no app do Afinador

      • Atendimento Prioritário

      • Aumente seu limite de lista

      • Ajude a produzir mais conteúdo

      Cifra Club Pro

      Aproveite o Cifra Club com benefícios exclusivos e sem anúncios
      Cifra Club Pro
      Aproveite o Cifra Club com benefícios exclusivos e sem anúncios
      OK