Cifra Club

More Than This

Krezip

Cifra: Principal (violão e guitarra)
Selo Cifra Club: esta cifra foi revisada para atender aos critérios oficiais da nossa Equipe de Qualidade.
tom: Dm
   D            F      D#    F    D
E|------------------|------------------|
B|------------------|------------------|
G|-7-7----7-7---10--|--8-8---10---7-7--|
D|-7-7----7-7---10--|--8-8---10---7-7--|
A|-5-5----5-5---8---|--6-6---8----5-5--|
E|------------------|------------------|

   D            F      D#    F    D
E|------------------|------------------|
B|------------------|------------------|
G|-7-7----7-7---10--|--8-8---10---7-7--|
D|-7-7----7-7---10--|--8-8---10---7-7--|
A|-5-5----5-5---8---|--6-6---8----5-5--|
E|------------------|------------------|

   D            F      D#    F    D    F
E|------------------|---------------------|
B|------------------|---------------------|
G|-7-7----7-7---10--|--8-8---10---7-7--10-|
D|-7-7----7-7---10--|--8-8---10---7-7--8--|
A|-5-5----5-5---8---|--6-6---8----5-5--8--|
E|------------------|---------------------|


Guitar 2: 3x

E|----5-----------5--|----5-----------8--|
B|----------6--------|----------6--------|
G|-------7-----7-----|-------7-----7-----|
D|-------------------|-------------------|
A|-5-----------------|-5-----------------|
E|-------------------|-------------------|


Pre-Chorus

Guitar 1:

   Dm     C#      Bb     A
E|-------------|--------------------------|
B|-6-6----6-6--|--3-3---------------------|
G|-7-7----6-6--|--3-3----6-6-6-6-6-6-6-6--|
D|-7-7----6-6--|--3-3----7-7-7-7-7-7-7-7--|
A|-5-5----4-4--|--1-1----7-7-7-7-7-7-7-7--|
E|-------------|---------5-5-5-5-5-5-5-5--|


Guitar 2:

E|-------------------|-------------------|
B|-------------------|-------------------|
G|-------7-----------|-------7-----------|
D|-------------------|-------------------|
A|-------------------|-------------------|
E|-------------------|-------------------|

E|-------------------|-------------------|
B|----5-----6--------|-------------------|
G|-------7-----------|-------------------|
D|-------------------|-7-7-7-7-7-7-7-7---|
A|-------------------|-7-7-7-7-7-7-7-7---|
E|-------------------|-5-5-5-5-5-5-5-5---|


Chorus 4x

   Dm       C         Bb       A 
E|------------------|------------------|
B|------------------|------------------|
G|-7-7-7-7--5-5-5-5-|-3-3-3-3----------|
D|-7-7-7-7--5-5-5-5-|-3-3-3-3--7-7-7-7-|
A|-5-5-5-5--3-3-3-3-|-1-1-1-1--7-7-7-7-|
E|------------------|----------5-5-5-5-|

 
Verse

Guitar 1:

   D            F      D#    F    D
E|------------------|------------------|
B|------------------|------------------|
G|-7-7----7-7---10--|--8-8---10---7-7--|
D|-7-7----7-7---10--|--8-8---10---7-7--|
A|-5-5----5-5---8---|--6-6---8----5-5--|
E|------------------|------------------|

   D            F      D#    F    D
E|------------------|------------------|
B|------------------|------------------|
G|-7-7----7-7---10--|--8-8---10---7-7--|
D|-7-7----7-7---10--|--8-8---10---7-7--|
A|-5-5----5-5---8---|--6-6---8----5-5--|
E|------------------|------------------|

   D            F      D#    F    D    F
E|------------------|---------------------|
B|------------------|---------------------|
G|-7-7----7-7---10--|--8-8---10---7-7--10-|
D|-7-7----7-7---10--|--8-8---10---7-7--8--|
A|-5-5----5-5---8---|--6-6---8----5-5--8--|
E|------------------|---------------------|


Guitar 2: 3x

E|----5-----------5--|----5-----------8--|
B|----------6--------|----------6--------|
G|-------7-----7-----|-------7-----7-----|
D|-------------------|-------------------|
A|-5-----------------|-5-----------------|
E|-------------------|-------------------|


Pre-Chorus

Guitar 1:

   Dm     C#      Bb     A
E|-------------|--------------------------|
B|-6-6----6-6--|--3-3---------------------|
G|-7-7----6-6--|--3-3----6-6-6-6-6-6-6-6--|
D|-7-7----6-6--|--3-3----7-7-7-7-7-7-7-7--|
A|-5-5----4-4--|--1-1----7-7-7-7-7-7-7-7--|
E|-------------|---------5-5-5-5-5-5-5-5--|


Guitar 2:

E|-------5-----------|-------------------|
B|-------------------|-------6-----------|
G|----7--------------|----7--------------|
D|-------------------|-------------------|
A|-5-----------------|-5-----------------|
E|-------------------|-------------------|

E|-------------------|-------------------|
B|-------5-----6-----|-------------------|
G|----7-----7--------|-------------------|
D|-------------------|-7-7-7-7-7-7-7-7---|
A|-5-----------------|-7-7-7-7-7-7-7-7---|
E|-------------------|-5-5-5-5-5-5-5-5---|


Chorus

   D        C         Bb       A 
E|------------------|------------------|
B|------------------|------------------|
G|-7-7-7-7--5-5-5-5-|-3-3-3-3----------|
D|-7-7-7-7--5-5-5-5-|-3-3-3-3--7-7-7-7-| 8x
A|-5-5-5-5--3-3-3-3-|-1-1-1-1--7-7-7-7-|
E|------------------|----------5-5-5-5-|


   D                  Bb       A 
E|------------------|------------------|
B|------------------|------------------|
G|-7-7--------------|-3-3-3-3----------|
D|-7-7--------------|-3-3-3-3--7-7-7-7-|
A|-5-5--------------|-1-1-1-1--7-7-7-7-|
E|------------------|----------5-5-5-5-|



   D        C         Bb       A 
E|------------------|------------------|
B|------------------|------------------|
G|-7-7-7-7--5-5-5-5-|-3-3-3-3----------|
D|-7-7-7-7--5-5-5-5-|-3-3-3-3--7-7-7-7-| 3x
A|-5-5-5-5--3-3-3-3-|-1-1-1-1--7-7-7-7-|
E|------------------|----------5-5-5-5-|


Solo

Guitar 1:

E|----10---------|------10----------------|
B|-----------10--|---------8--10/11\10----|
G|-7------7------|---7--------------------|
D|---------------|------------------------|
A|---------------|------------------------|
E|---------------|------------------------|

E|----10---------|--------10--8-8br-------|
B|---------------|----10------------8-----|
G|-7------7------|-7-------------------7--|
D|-----------7---|------------------------|
A|---------------|------------------------|
E|---------------|------------------------|


Guitar 2:

   D        C         Bb       A 
E|------------------|------------------|
B|------------------|------------------|
G|-7-7-7-7--5-5-5-5-|-3-3-3-3----------|
D|-7-7-7-7--5-5-5-5-|-3-3-3-3--7-7-7-7-| 4x
A|-5-5-5-5--3-3-3-3-|-1-1-1-1--7-7-7-7-|
E|------------------|----------5-5-5-5-|

   D                             
E|------------------|
B|------------------|
G|-7----------------|
D|-7----------------|
A|-5----------------|
E|------------------|
Outros vídeos desta música
    6 exibições
      • ½ Tom
      • Am
      • Bbm
      • Bm
      • Cm
      • C#m
      • Dm
      • Ebm
      • Em
      • Fm
      • F#m
      • Gm
      • G#m
    • Adicionar à lista

    Afinação da cifra

    Afinador online

      0 comentários

      Ver todos os comentários

      Entre para o Cifra Club PRO

      Tenha acesso a benefícios exclusivos no App e no Site

      • Chega de anúncios

      • Badges exclusivas

      • Mais recursos no app do Afinador

      • Atendimento Prioritário

      • Aumente seu limite de lista

      • Ajude a produzir mais conteúdo

      Cifra Club Pro

      Aproveite o Cifra Club com benefícios exclusivos e sem anúncios
      Cifra Club Pro
      Aproveite o Cifra Club com benefícios exclusivos e sem anúncios
      Ops (: Contenido disponible sólo en portugués.
      OK