Cifra Club

Burn The Rain

Kurt Cobain

Cifra: Principal (violão e guitarra)
Selo Cifra Club: esta cifra foi revisada para atender aos critérios oficiais da nossa Equipe de Qualidade.
tom: Db
E|----------------------------------|
B|----------------------------------|
G|----------------------------------|
D|--------------------------0-------|
A|-----0-------0------------x-------|
E|-3-------3-------3p0--2---2---2---|


[Bridge]

E|---------------------------------|
B|---------------------------------|
G|-----------------4---------------|
D|/6---6---6-------4---------------|
A|/4-----------2-------------------|
E|---------------------------------|


***********************************

| /   Slide up
| p   Pull off
| x   Dead note
Outros vídeos desta música
    1.334 exibições
      • ½ Tom
      • A
      • Bb
      • B
      • C
      • Db
      • D
      • Eb
      • E
      • F
      • F#
      • G
      • Ab
    • Adicionar à lista

    Afinação da cifra

    Afinador online

      0 comentários

      Ver todos os comentários

      Entre para o Cifra Club PRO

      Tenha acesso a benefícios exclusivos no App e no Site

      • Chega de anúncios

      • Badges exclusivas

      • Mais recursos no app do Afinador

      • Atendimento Prioritário

      • Aumente seu limite de lista

      • Ajude a produzir mais conteúdo

      Cifra Club Pro

      Aproveite o Cifra Club com benefícios exclusivos e sem anúncios
      Cifra Club Pro
      Aproveite o Cifra Club com benefícios exclusivos e sem anúncios
      Ops (: Contenido disponible sólo en portugués.
      OK