Cifra Club

Desire

Kurt Cobain

Cifra: Principal (violão e guitarra)
Selo Cifra Club: esta cifra foi revisada para atender aos critérios oficiais da nossa Equipe de Qualidade.
tom: Bm
E|-------------------------9-------|-------------------------9-------|-------------------------9-------|
B|---------8-----------------------|---------8-----------------------|---------8-----------------------|
G|-------------8-------7-------7---|-------------8-------7-------7---|-------------8-------7-------7---|
D|-----8---------------------------|-----8---------------------------|-----8---------------------------|
A|-6---------------5---------------|-6---------------5---------------|-6---------------5---------------|
E|---------------------------------|---------------------------------|---------------------------------|


E|-------------------------9-------|-------------------------9-------|-------------------------9-------|
B|---------8-----------------------|---------8-----------------------|---------8-----------------------|
G|-------------8-------7-------7---|-------------8-------7-------7---|-------------8-------7-------7---|
D|-----8---------------------------|-----8---------------------------|-----8---------------------------|
A|-6---------------5---------------|-6---------------5---------------|-6---------------5---------------|
E|---------------------------------|---------------------------------|---------------------------------|


E|-------------------------9-------|-------------------------9-------|-------------------------9-------|
B|---------8-----------------------|---------8-----------------------|---------8-----------------------|
G|-------------8-------7-------7---|-------------8-------7-------7---|-------------8-------7-------7---|
D|-----8---------------------------|-----8---------------------------|-----8---------------------------|
A|-6---------------5---------------|-6---------------5---------------|-6---------------5---------------|
E|---------------------------------|---------------------------------|---------------------------------|


E|-------------------------9-------|-------------------------9-------|-------------------------9-------|
B|---------8-----------------------|---------8-----------------------|---------8-----------------------|
G|-------------8-------7-------7---|-------------8-------7-------7---|-------------8-------7-------7---|
D|-----8---------------------------|-----8---------------------------|-----8---------------------------|
A|-6---------------5---------------|-6---------------5---------------|-6---------------5---------------|
E|---------------------------------|---------------------------------|---------------------------------|


E|-------------------------9-------|-------------------------9-------|-------------------------9-------|
B|---------8-----------------------|---------8-----------------------|---------8-----------------------|
G|-------------8-------7-------7---|-------------8-------7-------7---|-------------8-------7-------7---|
D|-----8---------------------------|-----8---------------------------|-----8---------------------------|
A|-6---------------5---------------|-6---------------5---------------|-6---------------5---------------|
E|---------------------------------|---------------------------------|---------------------------------|


E|-------------------------9-------|-------------------------9-------|---------------------------------|
B|---------8-----------------------|---------8-----------------------|---------------------------------|
G|-------------8-------7-------7---|-------------8-------7-------7---|-10--10--10--10--10--10--10--10--|
D|-----8---------------------------|-----8---------------------------|-10--10--10--10--10--10--10--10--|
A|-6---------------5---------------|-6---------------5---------------|-8---8---8---8---8---8---8---8---|
E|---------------------------------|---------------------------------|---------------------------------|


E|---------------------------------|---------------------------------|-3----3---3---0---0---0---0---|
B|---------------------------------|---------------------------------|-3----3---3---2---2---2---2---|
G|-7---7---7---7---7---7---7---7---|-7---7---7---7---7---7---7---7---|-0----0---0---2---2---2---2---|
D|-7---7---7---7---7---7---7---7---|-7---7---7---7---7---7---7---7---|-0----0---0---2---2---2---2---|
A|-5---5---5---5---5---5---5---5---|-5---5---5---5---5---5---5---5---|-2----2---2---0---0---0---0---|
E|---------------------------------|---------------------------------|-3----3---3-------------------|


E|---------------------------------|-3----3---3---0---0---0---0---|---------------------------------|
B|-5---5---5---5---7---7---7---7---|-3----3---3---2---2---2---2---|-5---5---5---5---7---7---7---7---|
G|-5---5---5---5---7---7---7---7---|-0----0---0---2---2---2---2---|-5---5---5---5---7---7---7---7---|
D|-5---5---5---5---7---7---7---7---|-0----0---0---2---2---2---2---|-5---5---5---5---7---7---7---7---|
A|-3---3---3---3---5---5---5---5---|-2----2---2---0---0---0---0---|-3---3---3---3---5---5---5---5---|
E|---------------------------------|-3----3---3-------------------|---------------------------------|


E|-3----3---3---0---0---0---0---|---------------------------------|---------------------------------|
B|-3----3---3---2---2---2---2---|-5---5---5---5---7---7---7---7---|---------------------------------|
G|-0----0---0---2---2---2---2---|-5---5---5---5---7---7---7---7---|---------------------------------|
D|-0----0---0---2---2---2---2---|-5---5---5---5---7---7---7---7---|-9---9---9---9---9---9---9---9---|
A|-2----2---2---0---0---0---0---|-3---3---3---3---5---5---5---5---|-9---9---9---9---9---9---9---9---|
E|-3----3---3-------------------|---------------------------------|-7---7---7---7---7---7---7---7---|


E|---------------------------------|---------------------------------|---------------------------------|
B|---------------------------------|---------------------------------|---------------------------------|
G|---------------------------------|---------------------------------|---------------------------------|
D|-6---6---6---6---6---6---6---6---|-9---9---9---9---9---9---9---9---|-6---6---6---6---6---6---6---6---|
A|-6---6---6---6---6---6---6---6---|-9---9---9---9---9---9---9---9---|-6---6---6---6---6---6---6---6---|
E|-4---4---4---4---4---4---4---4---|-7---7---7---7---7---7---7---7---|-4---4---4---4---4---4---4---4---|


E|---------------------------------|---------------------------------|---------------------------------|
B|---------------------------------|---------------------------------|---------------------------------|
G|---------------------------------|---------------------------------|---------------------------------|
D|-9---9---9---9---9---9---9---9---|-6---6---6---6---6---6---6---6---|-9---9---9---9---9---9---9---9---|
A|-9---9---9---9---9---9---9---9---|-6---6---6---6---6---6---6---6---|-9---9---9---9---9---9---9---9---|
E|-7---7---7---7---7---7---7---7---|-4---4---4---4---4---4---4---4---|-7---7---7---7---7---7---7---7---|


E|---------------------------------|-------------------------9-------|-------------------------9-------|
B|---------------------------------|---------8-----------------------|---------8-----------------------|
G|---------------------------------|-------------8-------7-------7---|-------------8-------7-------7---|
D|-6---6---6---6---6---6---6---6---|-----8---------------------------|-----8---------------------------|
A|-6---6---6---6---6---6---6---6---|-6---------------5---------------|-6---------------5---------------|
E|-4---4---4---4---4---4---4---4---|---------------------------------|---------------------------------|


E|-------------------------9-------|-------------------------9-------|-------------------------9-------|
B|---------8-----------------------|---------8-----------------------|---------8-----------------------|
G|-------------8-------7-------7---|-------------8-------7-------7---|-------------8-------7-------7---|
D|-----8---------------------------|-----8---------------------------|-----8---------------------------|
A|-6---------------5---------------|-6---------------5---------------|-6---------------5---------------|
E|---------------------------------|---------------------------------|---------------------------------|


E|-------------------------9-------|-------------------------9-------|-------------------------9-------|
B|---------8-----------------------|---------8-----------------------|---------8-----------------------|
G|-------------8-------7-------7---|-------------8-------7-------7---|-------------8-------7-------7---|
D|-----8---------------------------|-----8---------------------------|-----8---------------------------|
A|-6---------------5---------------|-6---------------5---------------|-6---------------5---------------|
E|---------------------------------|---------------------------------|---------------------------------|


E|-------------------------9-------|-------------------------9-------|-------------------------9-------|
B|---------8-----------------------|---------8-----------------------|---------8-----------------------|
G|-------------8-------7-------7---|-------------8-------7-------7---|-------------8-------7-------7---|
D|-----8---------------------------|-----8---------------------------|-----8---------------------------|
A|-6---------------5---------------|-6---------------5---------------|-6---------------5---------------|
E|---------------------------------|---------------------------------|---------------------------------|


E|-------------------------9-------|-------------------------9-------|-------------------------9-------|
B|---------8-----------------------|---------8-----------------------|---------8-----------------------|
G|-------------8-------7-------7---|-------------8-------7-------7---|-------------8-------7-------7---|
D|-----8---------------------------|-----8---------------------------|-----8---------------------------|
A|-6---------------5---------------|-6---------------5---------------|-6---------------5---------------|
E|---------------------------------|---------------------------------|---------------------------------|


E|-------------------------9-------|-------------------------9-------|---------------------------------|
B|---------8-----------------------|---------8-----------------------|---------------------------------|
G|-------------8-------7-------7---|-------------8-------7-------7---|---------------------------------|
D|-----8---------------------------|-----8---------------------------|-6---6---6---6---6---6---6---6---|
A|-6---------------5---------------|-6---------------5---------------|-6---6---6---6---6---6---6---6---|
E|---------------------------------|---------------------------------|-4---4---4---4---4---4---4---4---|


E|---------------------------------|-3----3---3---0---0---0---0---|---------------------------------|
B|---------------------------------|-3----3---3---2---2---2---2---|-5---5---5---5---7---7---7---7---|
G|---------------------------------|-0----0---0---2---2---2---2---|-5---5---5---5---7---7---7---7---|
D|-6---6---6---6---6---6---6---6---|-0----0---0---2---2---2---2---|-5---5---5---5---7---7---7---7---|
A|-6---6---6---6---6---6---6---6---|-2----2---2---0---0---0---0---|-3---3---3---3---5---5---5---5---|
E|-4---4---4---4---4---4---4---4---|-3----3---3-------------------|---------------------------------|


E|-3----3---3---0---0---0---0---|---------------------------------|-3----3---3---0---0---0---0---|
B|-3----3---3---2---2---2---2---|-5---5---5---5---7---7---7---7---|-3----3---3---2---2---2---2---|
G|-0----0---0---2---2---2---2---|-5---5---5---5---7---7---7---7---|-0----0---0---2---2---2---2---|
D|-0----0---0---2---2---2---2---|-5---5---5---5---7---7---7---7---|-0----0---0---2---2---2---2---|
A|-2----2---2---0---0---0---0---|-3---3---3---3---5---5---5---5---|-2----2---2---0---0---0---0---|
E|-3----3---3-------------------|---------------------------------|-3----3---3-------------------|


E|---------------------------------|---------------------------------|---------------------------------|
B|-5---5---5---5---7---7---7---7---|---------------------------------|---------------------------------|
G|-5---5---5---5---7---7---7---7---|---------------------------------|---------------------------------|
D|-5---5---5---5---7---7---7---7---|-9---9---9---9---9---9---9---9---|-6---6---6---6---6---6---6---6---|
A|-3---3---3---3---5---5---5---5---|-9---9---9---9---9---9---9---9---|-6---6---6---6---6---6---6---6---|
E|---------------------------------|-7---7---7---7---7---7---7---7---|-4---4---4---4---4---4---4---4---|


E|---------------------------------|---------------------------------|---------------------------------|
B|---------------------------------|---------------------------------|---------------------------------|
G|---------------------------------|---------------------------------|---------------------------------|
D|-9---9---9---9---9---9---9---9---|-6---6---6---6---6---6---6---6---|-9---9---9---9---9---9---9---9---|
A|-9---9---9---9---9---9---9---9---|-6---6---6---6---6---6---6---6---|-9---9---9---9---9---9---9---9---|
E|-7---7---7---7---7---7---7---7---|-4---4---4---4---4---4---4---4---|-7---7---7---7---7---7---7---7---|


E|---------------------------------|---------------------------------|-------------|
B|---------------------------------|---------------------------------|-------------|
G|---------------------------------|---------------------------------|-------------|
D|-6---6---6---6---6---6---6---6---|-9---9---9---9---9---9---9---9---|-6-----------|
A|-6---6---6---6---6---6---6---6---|-9---9---9---9---9---9---9---9---|-6-----------|
D#|-4---4---4---4---4---4---4---4---|-7---7---7---7---7---7---7---7---|-4-----------|
Outros vídeos desta música
    132 exibições
      • ½ Tom
      • Am
      • Bbm
      • Bm
      • Cm
      • C#m
      • Dm
      • Ebm
      • Em
      • Fm
      • F#m
      • Gm
      • G#m
    • Adicionar à lista

    Afinação da cifra

    Afinador online

      0 comentários

      Ver todos os comentários

      Entre para o Cifra Club PRO

      Tenha acesso a benefícios exclusivos no App e no Site

      • Chega de anúncios

      • Badges exclusivas

      • Mais recursos no app do Afinador

      • Atendimento Prioritário

      • Aumente seu limite de lista

      • Ajude a produzir mais conteúdo

      Cifra Club Pro

      Aproveite o Cifra Club com benefícios exclusivos e sem anúncios
      Cifra Club Pro
      Aproveite o Cifra Club com benefícios exclusivos e sem anúncios
      Ops (: Contenido disponible sólo en portugués.
      OK