Cifra Club

Ibiza

L7NNON

Cifra: Principal (violão e guitarra)
Selo Cifra Club: esta cifra foi revisada para atender aos critérios oficiais da nossa Equipe de Qualidade.
tom: A
[Intro]
  Bbm7   G#m7     F#7M          
E|-6------4--------2------------5---------------------|
B|----------------------------------------------------|
G|--6------4--------3------------4--------------------|
D|---6------4--------3------------5-------------------|
A|----6------4--------2------------4------------------|
E|----------------------------------------------------|

  Bbm7   G#m7     F#7M    Bb4/F    G#5/F
E|-6------4--------2----------------------------------|
B|-------------------------8---------8----------------|
G|--6------4--------3-------8---------7---------------|
D|---6------4--------3-------8---------8--------------|
A|----6------4--------2-------7---------9-------------|
E|----------------------------------------------------|


Ibiza, dia trinta do sete de dois mil e vinte e três
Uma e quarenta da tarde

Rif

  Bbm7        G#m7         F#7M               
E|-6-----------4------------2---------2--------5------|
B|----------------------------------------------------|
G|--6-----------4------------3---------3-------4------|
D|---6-----------4------------3---------3-------5-----|
A|----6-----------4------------2---------4-------4----|
E|-----6| H8h6-------4h6h4------------------------------

              Bbm7                       G#m7
Olhando esse mar, observando tuas curvas

Me sinto tão bem
F#7M
Posso te apresentar as ruas
             
Me diz se você vem
              Bbm7                       G#m7
Olhando esse mar, observando tuas curvas

Me sinto tão bem
F#7M
Posso te apresentar as ruas
       
Então vem

           Bbm7         G#m7
Tudo fica mais bonito se eu puder compartilhar contigo
     F#7M                                         
Bem melhor que só rotular, é aproveitar, conta comigo
           Bbm7
Se quiser deitar na grama, dizer que ama
G#m7
O que não falta é motivo
               F#7M
Viajar pra Noronha, Ibiza, Seychelles, Bahamas
                   
E parar no teu sorriso
      Bbm7               G#m7
(Porque) Cê me faz tão, cê me faz tão bem
    F#7M                                   
(Bebê) Não diz que não, não diz que não, vem
       Bbm7                G#m7
(Vem ver) O que eu preparei, parei
        F#7M                     
(Pra você), duvidei, mas tô vendo acontecer
Bbm7               G#m7
Ó, faz de conta que eu tô chegando e cê tá pronta
  F#7M                                       
Ê, Ó, nada contra, mas distância deixa minha mente tonta
           Bbm7
Sei que às vezes até um Facetime resolve
G#m7
Mas prefiro o mesmo lugar
    F#7M
Esquece o passado e se envolve
                  
Preta, eu só queria tá


              Bbm7                       G#m7
Olhando esse mar, observando tuas curvas

Me sinto tão bem
F#7M
Posso te apresentar as ruas
             
Me diz se você vem
              Bbm7                       G#m7
Olhando esse mar, observando tuas curvas

Me sinto tão bem
F#7M
Posso te apresentar as ruas
       
Então vem
00:00 / 00:00
Outros vídeos desta música
Repetir
Outros vídeos desta música
1.293 exibições
    • ½ Tom
    • A
    • Bb
    • B
    • C
    • Db
    • D
    • Eb
    • E
    • F
    • F#
    • G
    • Ab
  • Adicionar à lista

Afinação da cifra

Afinador online

    0 comentários

    Ver todos os comentários

    Entre para o Cifra Club PRO

    Tenha acesso a benefícios exclusivos no App e no Site

    • Chega de anúncios

    • Mais recursos no app do Afinador

    • Atendimento Prioritário

    • Aumente seu limite de lista

    • Ajude a produzir mais conteúdo

    00:00 / 00:00

    Cifra Club Pro

    Aproveite o Cifra Club com benefícios exclusivos e sem anúncios
    Cifra Club Pro
    Aproveite o Cifra Club com benefícios exclusivos e sem anúncios
    OK