Cifra Club

Refém (part. Xamã, Maia e John)

L7NNON

Cifra: Principal (violão e guitarra)
Selo Cifra Club: esta cifra foi revisada para atender aos critérios oficiais da nossa Equipe de Qualidade.
tom: C#m
[Intro]

Tab - Intro

E|------------------------------------------|
B|--5-----0-x-0-----------5-----0-x-0-------|
G|------6---x-6---------------7---x-7-------|
D|----6-----x-6-------------6-----x-6-------|
A|--4-------x-4-----------7-------x-7-------|
E|------------------------------------------|

E|------------------------------------------|
B|--------0-x-0-----------------------------|
G|------6---x-6---------------2--------4----|
D|----6-----x-6-------------2--------4------|
A|----------x-------------------------------|
E|--5-------x-5-----------2--------4--------|

E|------------------------------------------|
B|--------0-x-0-----------7-----0-x-0-------|
G|------6---x-6---------------7---x-7-------|
D|----6-----x-6-------------6-----x-6-------|
A|--4-------x-4-----------7-------x-7-------|
E|------------------------------------------|

E|------------------------------------------|
B|--------0-x-0-----------------------------|
G|------6---x-6---------------2--------4----|
D|----6-----x-6-------------2--------4------|
A|----------x-------------------------------|
E|--5-------x-5-----------2--------4--------|

C#m7     E7(9)      A7M
  Me diz o que você tem
         F#m7       G#m7
E o porque de me fazer tão bem
C#m7    E7(9)       A7M
 Me diz o que você tem
         F#m7         G#m7
Você me faz de seu refém
C#m7     E7          A7M
  Me diz o que você tem
         F#m7       G#m7
E o porque de me fazer tão bem
C#m7    E7(9)       A7M
 Me diz o que você tem
         F#m7         G#m7
Você me faz de seu refém

[Solo Base] C#m7  E7  A7M  F#m7  G#m7

[Primeira Parte]

E|--5/7--5--4--2--0--2----------------------|
B|--7/9--7--5--4--2--4---2-2---x------------|
G|-----------------------1-1---x--5-5-------|
D|-----------------------2-2---x--4-4-------|
A|-----------------------0-0---x------------|
E|--------------------------------4-4-------|

C#m7
    O problema é que você me faz tão bem
                 A7M
Tão bem faz tão bem
                 G#7
24 horas pensando em nós

Ouço sua voz, nega só vem

Tab - Riff 1

E|------------------------------------------|
B|--5-5---x---7-7---x---------x-------------|
G|--4-4---x---7-7---x---6-6---x---5-5-------|
D|--6-6---x---6-6---x---6-6---x---4-4-------|
A|--4-4---x---7-7---x-----------------------|
E|----------------------5-5---x---4-4-------|

E|------------------------------------------|
B|--5-5---x---7-7---x---------x-------------|
G|--4-4---x---7-7---x---6-6---x---5-5-------|
D|--6-6---x---6-6---x---6-6---x---4-4-------|
A|--4-4---x---7-7---x-----------------------|
E|----------------------5-5---x---4-4-------|

C#m7
    Reclama que eu rodo o Brasil
  E7(9)                   A7M
Quando ela vai fico vazio
                G#7
Cê queria prova de amor

Linda, trouxe o refil

C#m7
    Então, no caso, amor não acaba
E7(9)                          A7M 
  Coração não enche, transborda
                                          G#7 
Nem sempre o que se sente é o que se fala

Já que cê tá na linha, eu dou corda

Tab - Riff 2

E|------------------------------------------|
B|--5-5---x---7-7---x---------x---4---------|
G|--4-4---x---7-7---x---6-6---x---5---------|
D|--6-6---x---6-6---x---6-6---x---4---------|
A|--4-4---x---7-7---x-----------------------|
E|----------------------5-5---x---4---------|

C#m7
    Então vamo junto rodar o mundo
E7(9)                                         A7M 
   Tudo passa tão depressa, disso eu to certo
                         G#7
Quando eu falo que é só nós, amo suas curvas, papo reto

[Ponte]

  C#m7
Quando você vai voltar?
                 E7
O que que você quer me dar?
                 A7M
Aonde você vai agora?
                F#m7 G#m7
Onde você vai agora?
    C#m7
O que que você tem, linda?
                 E7(9)
O que que você quer me dar?
                    A7M
Quanto frio faz lá fora
                F#m7  G#m7
Onde você vai agora?

[Segunda Parte]

  C#m7
Ei, ela me usa
         E7
Toda dourada de praia, embaixo da blusa
 A7M
Toda moderna e confusa
                F#m7
Doida pra se entorpecer
    G#m7
Na vibe desse solo
         C#m7
Desse entardecer

Linda Medusa
    E7(9)                                   A7M
Minha Monalisa, entrou na minha vida de intrusa

Trouxe um açaí
               F#m7         G#m7
Eu vou passar aí na segunda
                     C#m7
Que que você tem, bebê?

O que que você quer beber?
   E7   
Porque que você tem essa bunda?
                  A7M
Dizem que eu sou louco e que eu
              F#m7          G#m7
Vou casar de Vans e bermuda

[Terceira Parte]

    C#m7                Cm7
Eu sei o que significa desistir
   Bm7             E7
A fé é o que dignifica o MC
  A7M                                G#7
Até porque cê fosse minha, se eu te desse o mundo

A gente não taria nem aqui
            C#m7
A gente não      taria nem aí
C#m7              Bm7                 E7 
Vida louca, vida leve, vida vagabunda
                  A7M                           G#7
Toda linda, toda lua, sou seu engenheiro do Hawaii

Um dia a gente muda como um casalzinho de Paris
C#m7
     Segunda eu fui pagar meu DUDA
            E7(9)
Eu vi uns amigo que eu não via há muito tempo, como tudo muda
A7M
    A vida passa, eu to cantando assim
         F#m7          G#m7
Falsidade por aqui me suga
                       C#m7
Nossa mente é o nosso lar

E o nosso quarto é como o casco de uma tartaruga
E7                                          A7M
   Os jogadores mudam, mas no jogo a briga nada muda
                          F#m7                  G#m7
Eu vim sozinho de Sepetiba, de Campo Grande, Inhoaíba
    C#m7                     Cm7                 Bm7
O que que você quer me dar? Sou mais nós dois desenrolar
      E7                 A7M                           G#7 
Com quem que você vai embora? Xamã tá te esperando lá fora

[Refrão]

C#m7     E7          A7M
  Me diz o que você tem
         F#m7       G#m7
E o porque de me fazer tão bem
C#m7    E7(9)       A7M
 Me diz o que você tem
         F#m7         G#m7
Você me faz de seu refém
C#m7     E7          A7M
  Me diz o que você tem
         F#m7       G#m7
E o porque de me fazer tão bem
C#m7    E7(9)       A7M
 Me diz o que você tem
         F#m7         G#m7  C#m7
Você me faz de seu refém
Outros vídeos desta música
    64.528 exibições
      • ½ Tom
      • Am
      • Bbm
      • Bm
      • Cm
      • C#m
      • Dm
      • Ebm
      • Em
      • Fm
      • F#m
      • Gm
      • G#m
    • Adicionar à lista

    Afinação da cifra

    Afinador online

      0 comentários

      Ver todos os comentários

      Entre para o Cifra Club PRO

      Tenha acesso a benefícios exclusivos no App e no Site

      • Chega de anúncios

      • Badges exclusivas

      • Mais recursos no app do Afinador

      • Atendimento Prioritário

      • Aumente seu limite de lista

      • Ajude a produzir mais conteúdo

      Cifra Club Pro

      Aproveite o Cifra Club com benefícios exclusivos e sem anúncios
      Cifra Club Pro
      Aproveite o Cifra Club com benefícios exclusivos e sem anúncios
      OK