Cifra Club

Pesadelos

La Muerte

Cifra: Principal (violão e guitarra)
tom: G
[Intro]

   Am              C               
E|---------------------------------|
B|---------1---------------1-------|
G|-----2-----2---------0-----0-----|
D|---2---2-----2-----2---2-----2---|
A|-0-------------0-3-------------0-|
E|---------------------------------|

   F               Dm
E|---------------------------------|
B|---------1---------------6-------|
G|-----2-----2---------7-----7-----|
D|---3---3-----3-----7---7-----7---|
A|---------------0-5-------------0-|
E|-1-------------------------------|

   Am              C               
E|---------------------------------|
B|---------1---------------1-------|
G|-----2-----2---------0-----0-----|
D|---2---2-----2-----2---2-----2---|
A|-0-------------0-3-------------0-|
E|---------------------------------|

   F               Dm
E|-------------------------------------5-|
B|---------1---------------6----------6--|
G|-----2-----2---------7-----7-------7---|
D|---3---3-----3-----7---7-----7----7----|
A|---------------0-5-------------0-5-----|
E|-1-------------------------------------|

( Am  C  F  Dm )

Am      C
Hoje eu acordei
F                  Dm
Pensando em várias coisas
Am        C
Uma delas é você
F                           Dm
Sinto lhe dizer mais não te deixei louca

Am            C     F              Dm
Mas não tenho culpa de te emplicar
Am        C      F                   Dm
Perdi uma chance só tentei te ajudar
Am             C              F                    Dm
Só foi um erro meu mas, eu queria ver se ele fosse seu
Am        C         F                       Dm
Eu cometi primeiro, isso me deixou em muito desespero

Am     C   F              Dm
Eu acordei de uma maneira diferente
Am    C   F          Dm
Eu tentei o suicídio novamente

Am            C       F                 Dm
Mas não tenho escolha de não poder mais
Am           C         F                        Dm
Tudo isso acabou minha alma já não aguenta mais
Am        C      F                      Dm
Tentei descrever todos os meus pesadelos
Am           C            F  
Essa parte é meio sombria que meus amigos nem ficarão 
         Dm
inteiros

Am
Sem se perguntar 
C
O que avia comigo
F
Nessa história
      Dm
Eu vendi a minha alma só pra ter uma amigo

Am
Hoje levantei 
C
precisei de ajuda
F
Meus olhos sangravam
    Dm
Pareciam até lacrimejar

   Am            A9    Am
E|---------------------------------|
B|---------1-----0-----1-----1-----|
G|-----2-----2-----2-----2-----2---|
D|---2---2-----2-----2-----2-----2-|
A|-0-------------------------------|
E|---------------------------------|

   C             C9    C     C7M
E|---------------------------------|
B|---------1-----3-----1-----0-----|
G|-----0-----0-----0-----0---------|
D|---2---2-----2-----2-----2-------|
A|-3-------------------------------|
E|---------------------------------|

   Am            A9    Am
E|---------------------------------|
B|---------1-----0-----1-----1-----|
G|-----2-----2-----2-----2-----2---|
D|---2---2-----2-----2-----2-----2-|
A|-0-------------------------------|
E|---------------------------------|

   C             C9    C     C7M
E|---------------------------------|
B|---------1-----3-----1-----0-----|
G|-----0-----0-----0-----0---------|
D|---2---2-----2-----2-----2-------|
A|-3-------------------------------|
E|---------------------------------|

( Am  A9  Am  C  C9  C7M )
( Am  A9  Am  C  C9  C7M )

Am   C            F            Dm
Saia sangue lá de dentro sem parar
Am      C                F                 Dm
Eu precisei de ajuda pra ir no banheiro e até me levantar

Am     C      F                  Dm
Eu estive mal precisei me salvar
Am      C            F                  Dm
Dessa depressão, por acaso eu já tentei me matar?
Am         C             F               Dm
Eu preciso de você que está a me escutar
Am         C       F         Dm
Mas eu não consigo nem olhar

   Am            C               
E|---------------------------|
B|---------1-------------1---|
G|-----2-------------0-------|
D|---2---2---------2---2-----|
A|-0-----------0-3-----------|
E|---------------------------|

   F             Dm
E|---------------------------|
B|---------1-------------6---|
G|-----2-------------7-------|
D|---3---3---------7---7-----|
A|-------------0-5-----------|
E|-1-------------------------|

   Am            C               
E|---------------------------|
B|---------1-------------1---|
G|-----2-------------0-------|
D|---2---2---------2---2-----|
A|-0-----------0-3-----------|
E|---------------------------|

   F             Dm
E|---------------------------|
B|---------1-------------6---|
G|-----2-------------7-------|
D|---3---3---------7---7-----|
A|-------------0-5-----------|
E|-1-------------------------|

Am               C
Meu olhar estava fraco
            F
Só via o vermelho sem ver
    Dm
Parecia um pesadelo

Am
Quedas e quedas
             C
Me tornam um monstro
                     F
Fiquei triste por dentro
                      Dm
Mas não tive culpa acidente desatento

Am                   C
Mas foi só olhar aos olhos daquela pessoa
F
Que me vigiava o tempo todo
Dm
Sem se preocupar

Am                 C
Ela deseja a minha morte e isso ela conseguiu
F                            Dm
Não tive culpa foi por causa dela eu só tive um 
             Am
compromisso errado
                   C   F   Dm
Por isso eu estou aqui

Am              C
Pesadelos acontecem ainda bem que eu acordei
F                            
Não quero mais voltar esse sonho
Dm
Prefiro estar morto por dentro

[Final]

   Am            A9    Am
E|---------------------------------|
B|---------1-----0-----1-----1-----|
G|-----2-----2-----2-----2-----2---|
D|---2---2-----2-----2-----2-----2-|
A|-0-------------------------------|
E|---------------------------------|

   C             C9    C     C7M
E|---------------------------------|
B|---------1-----3-----1-----0-----|
G|-----0-----0-----0-----0---------|
D|---2---2-----2-----2-----2-------|
A|-3-------------------------------|
E|---------------------------------|

   Am            A9    Am
E|---------------------------------|
B|---------1-----0-----1-----1-----|
G|-----2-----2-----2-----2-----2---|
D|---2---2-----2-----2-----2-----2-|
A|-0-------------------------------|
E|---------------------------------|

   Dm
E|-------------------------------|
B|---------6-----6--8-6-5--------|
G|-----7-----7-------------------|
D|---7---7-----7-----------------|
A|-5-----------------------------|
E|-------------------------------|
00:00 / 00:00
Outros vídeos desta música
Repetir
Outros vídeos desta música
Composição de La Muerte
Colaboração e revisão:
  • La Muerte
    • ½ Tom
    • A
    • Bb
    • B
    • C
    • Db
    • D
    • Eb
    • E
    • F
    • F#
    • G
    • Ab
  • Adicionar à lista

    0 comentários

    Ver todos os comentários

    Conseguiu tocar?

    0 Tocaram 0 Ainda não

    Grave um vídeo tocando Pesadelos e nos envie!

    Entre para oCifra Club PRO

    Tenha acesso a benefícios exclusivos no App e no Site

    • Chega de anúncios

    • Prioridade de compra em lançamentos

    • Mais recursos no app do Afinador

    • Atendimento Prioritário

    • Descontos nos produtos Cifra Club

    • Ajude a produzir mais conteúdo

    00:00 / 00:00

    Cifra Club Pro

    Aproveite o Cifra Club com benefícios exclusivos e sem anúncios
    Cifra Club Pro
    Aproveite o Cifra Club com benefícios exclusivos e sem anúncios
    OK