Cifra Club

Prazer, Lúcy

La Muerte

Cifra: Principal (violão e guitarra)
tom: Em (forma dos acordes no tom de Dm) Capotraste na 2ª casa
[Intro]

   Dm          F           A           Bb
E|-------------------------------------------------|
B|---6-6---6-0---1-1---1-0---2-2---2-0---3-3---3-0-|
G|---7-7---7-0---2-2---2-0---2-2---2-0---3-3---3-0-|
D|---7-7---7-0---3-3---3-0---2-2---2-0---3-3---3-0-|
A|-5-----5-----------------0-----0-----1-----1-----|
E|-------------1-----1-----------------------------|
 
   Dm          F           A           Bb
E|-------------------------------------------------|
B|---6-6---6-0---1-1---1-0---2-2---2-0---3-3---3-0-|
G|---7-7---7-0---2-2---2-0---2-2---2-0---3-3---3-0-|
D|---7-7---7-0---3-3---3-0---2-2---2-0---3-3---3-0-|
A|-5-----5-----------------0-----0-----1-----1-----|
E|-------------1-----1-----------------------------|

[Primeira Parte]

Dm         F
Vou te ensinar
A            Bb
A vender sua 
Dm                  F
Junte toda a sua bondade
      A               Bb
E abandone no meio do nada

[Pré-Refrão]

   Dm          F        A           Bb
E|----------------------------------------------|
B|---6-6---6-0---1-1-1----2-2---2-0---3-3---3-0-|
G|---7-7---7-0---2-2-2----2-2---2-0---3-3---3-0-|
D|---7-7---7-0---3-3-3----2-2---2-0---3-3---3-0-|
A|-5-----5--------------0-----0-----1-----1-----|
E|-------------1--------------------------------|

   Dm          F        A           Bb
E|----------------------------------------------|
B|---6-6---6-0---1-1-1----2-2---2-0---3-3---3-0-|
G|---7-7---7-0---2-2-2----2-2---2-0---3-3---3-0-|
D|---7-7---7-0---3-3-3----2-2---2-0---3-3---3-0-|
A|-5-----5--------------0-----0-----1-----1-----|
E|-------------1--------------------------------|

Dm         F
Crie uma estrela no chão
A                 Bb
Com um círculo em volta
Dm           F
Nem tente gritar a Deus
A           Bb
Pois não adianta nada

[Refrão]

Dm          F
Eu vou te dizer
             A
Como que vai ser
          Bb
Daqui pra frente
                Dm
Eu que dou as ordens

             F
Tente se acalmar
             A
Não vou te matar
               Bb
Vou te fazer sofrer, me diz qual seria 

A graça de ver você morrer

   Dm              F               A               Bb
E|-----------------------------------------------------------------|
B|-------6-------6-------1-------1-------2-------2-------3-------3-|
G|-----7-------7-------2-------2-------2-------2-------3-------3---|
D|---7-------7-------3-------3-------2-------2-------3-------3-----|
A|-5-------5-----------------------0-------0-------1-------1-------|
E|-----------------1-------1---------------------------------------|
  
   Dm              F               A               Bb
E|-----------------------------------------------------------------|
B|-------6-------6-------1-------1-------2-------2-------3-------3-|
G|-----7-------7-------2-------2-------2-------2-------3-------3---|
D|---7-------7-------3-------3-------2-------2-------3-------3-----|
A|-5-------5-----------------------0-------0-------1-------1-------|
E|-----------------1-------1---------------------------------------|

   Dm          F           A           Bb
E|-------------------------------------------------|
B|---6-6---6-0---1-1---1-0---2-2---2-0---3-3---3-0-|
G|---7-7---7-0---2-2---2-0---2-2---2-0---3-3---3-0-|
D|---7-7---7-0---3-3---3-0---2-2---2-0---3-3---3-0-|
A|-5-----5-----------------0-----0-----1-----1-----|
E|-------------1-----1-----------------------------|

   Dm          F           A           Bb
E|-------------------------------------------------|
B|---6-6---6-0---1-1---1-0---2-2---2-0---3-3---3-0-|
G|---7-7---7-0---2-2---2-0---2-2---2-0---3-3---3-0-|
D|---7-7---7-0---3-3---3-0---2-2---2-0---3-3---3-0-|
A|-5-----5-----------------0-----0-----1-----1-----|
E|-------------1-----1-----------------------------|

Dm        F
Vou te mandar
A          Bb
Para um lindo lugar
Dm    F
Se tentar me impedir
A          Bb
Será pior, pois eu vou te matar

Dm         F
Vou te ensinar
A            Bb
A vender sua alma
Dm             F
Vamos jogar um jogo de azar
      A                      Bb
Quero ver se você é capaz de me ganhar

[Segunda Parte]

   Dm          F           A           Bb
E|-------------------------------------------------|
B|---6-6---6-0---1-1---1-0---2-2---2-0---3-3---3-0-|
G|---7-7---7-0---2-2---2-0---2-2---2-0---3-3---3-0-|
D|---7-7---7-0---3-3---3-0---2-2---2-0---3-3---3-0-|
A|-5-----5-----------------0-----0-----1-----1-----|
E|-------------1-----1-----------------------------|

   Dm          F           A           Bb
E|-------------------------------------------------|
B|---6-6---6-0---1-1---1-0---2-2---2-0---3-3---3-0-|
G|---7-7---7-0---2-2---2-0---2-2---2-0---3-3---3-0-|
D|---7-7---7-0---3-3---3-0---2-2---2-0---3-3---3-0-|
A|-5-----5-----------------0-----0-----1-----1-----|
E|-------------1-----1-----------------------------|

Dm       F
Vamos bailar
A             Bb
No fogo de Valhala
Dm              F
Quero ver se os Deuses
A           Bb
Vão nos aceitar

[Pré-Refrão]

   Dm          F        A           Bb
E|----------------------------------------------|
B|---6-6---6-0---1-1-1----2-2---2-0---3-3---3-0-|
G|---7-7---7-0---2-2-2----2-2---2-0---3-3---3-0-|
D|---7-7---7-0---3-3-3----2-2---2-0---3-3---3-0-|
A|-5-----5--------------0-----0-----1-----1-----|
E|-------------1--------------------------------|

   Dm          F        A           Bb
E|----------------------------------------------|
B|---6-6---6-0---1-1-1----2-2---2-0---3-3---3-0-|
G|---7-7---7-0---2-2-2----2-2---2-0---3-3---3-0-|
D|---7-7---7-0---3-3-3----2-2---2-0---3-3---3-0-|
A|-5-----5--------------0-----0-----1-----1-----|
E|-------------1--------------------------------|

Dm      F
Vamos fugir
A          Bb
Para o horizonte
Dm       F
Vou te levar daqui
A             Bb
Para um lugar bem distante

[Refrão]

Dm          F
Me chame de Lúcy
                    A
Pois teu demônio eu sou
               Bb
Não sou um anjo 
                  Dm
Mas me chamo como tal

        F
Você vendeu a sua alma
    A
Não venha passar mal
       Bb                
Pois o mal aqui sou eu e você que se vendeu

   Dm              F               A               Bb
E|-----------------------------------------------------------------|
B|-------6-------6-------1-------1-------2-------2-------3-------3-|
G|-----7-------7-------2-------2-------2-------2-------3-------3---|
D|---7-------7-------3-------3-------2-------2-------3-------3-----|
A|-5-------5-----------------------0-------0-------1-------1-------|
E|-----------------1-------1---------------------------------------|

   Dm              F               A               Bb
E|-----------------------------------------------------------------|
B|-------6-------6-------1-------1-------2-------2-------3-------3-|
G|-----7-------7-------2-------2-------2-------2-------3-------3---|
D|---7-------7-------3-------3-------2-------2-------3-------3-----|
A|-5-------5-----------------------0-------0-------1-------1-------|
E|-----------------1-------1---------------------------------------|

   Dm          F           A           Bb
E|-------------------------------------------------|
B|---6-6---6-0---1-1---1-0---2-2---2-0---3-3---3-0-|
G|---7-7---7-0---2-2---2-0---2-2---2-0---3-3---3-0-|
D|---7-7---7-0---3-3---3-0---2-2---2-0---3-3---3-0-|
A|-5-----5-----------------0-----0-----1-----1-----|
E|-------------1-----1-----------------------------|

   Dm          F           A           Bb
E|-------------------------------------------------|
B|---6-6---6-0---1-1---1-0---2-2---2-0---3-3---3-0-|
G|---7-7---7-0---2-2---2-0---2-2---2-0---3-3---3-0-|
D|---7-7---7-0---3-3---3-0---2-2---2-0---3-3---3-0-|
A|-5-----5-----------------0-----0-----1-----1-----|
E|-------------1-----1-----------------------------|

Dm        F
Vou te mandar
A          Bb
Para um lindo lugar
Dm                 F
Serei teu pior pesadelo
A                 Bb
Pois não tem como me matar
00:00 / 00:00
Outros vídeos desta música
Repetir
Outros vídeos desta música
Composição de La Muerte
Colaboração e revisão:
  • La Muerte
4 exibições
    • ½ Tom
    • Am
    • Bbm
    • Bm
    • Cm
    • C#m
    • Dm
    • Ebm
    • Em
    • Fm
    • F#m
    • Gm
    • G#m
  • Adicionar à lista

    0 comentários

    Ver todos os comentários

    Conseguiu tocar?

    0 Tocaram 0 Ainda não

    Grave um vídeo tocando Prazer, Lúcy e nos envie!

    Entre para oCifra Club PRO

    Tenha acesso a benefícios exclusivos no App e no Site

    • Chega de anúncios

    • Prioridade de compra em lançamentos

    • Mais recursos no app do Afinador

    • Atendimento Prioritário

    • Descontos nos produtos Cifra Club

    • Ajude a produzir mais conteúdo

    00:00 / 00:00

    Cifra Club Pro

    Aproveite o Cifra Club com benefícios exclusivos e sem anúncios
    Cifra Club Pro
    Aproveite o Cifra Club com benefícios exclusivos e sem anúncios
    OK