Cifra Club

Tridimensional

La Muerte

Cifra: Principal (violão e guitarra)
tom: Db (forma dos acordes no tom de C) Capotraste na 1ª casa
[Tab - Intro]

Parte 1 de 4

   C7M                      
E|------------------------------------------|
B|-5---5-x---5---5-x-5-x--------------------|
G|-4---4-x---4---4-x-4-x--------------------|
D|-5-----x-5-------x-5-x--------------------|
A|-3-----x---3-----x-3-x--------------------|
E|------------------------------------------|

Parte 2 de 4

   Am                      
E|------------------------------------------|
B|-1---1-x---1---1-x-1-x--------------------|
G|-2---2-x---2---2-x-2-x--------------------|
D|-2-----x-2-------x-2-x--------------------|
A|-0-----x---0-----x-0-x--------------------|
E|------------------------------------------|

Parte 3 de 4

   Em                      
E|------------------------------------------|
B|-0---0-x---0---0-x-0-x--------------------|
G|-0---0-x---0---0-x-0-x--------------------|
D|-2-----x-2-------x-2-x--------------------|
A|-------x---------x---x--------------------|
E|-0-----x---0-----x-0-x--------------------|

Parte 4 de 4

   Bm
E|-2---2-x---2---2-x-2-x--------------------|
B|-3---3-x---3---3-x-3-x--------------------|
G|-4-----x-4-------x-4-x--------------------|
D|-------x---------x---x--------------------|
A|-2-----x---2-----x-2-x--------------------|
E|------------------------------------------|

[Primeira Parte]

C7M                                     Am
    As vezes me pareço muito incompleto
                                   Em
Vivendo em um caminho meio incerto

Mas o que muitos não sabem
                     Bm
É que eu tô completo

Com o coração que me deixa disperso

C7M                                Am
    Sempre que eu tô perto de você
                              Em
Nada de ruim vem me acontecer
                                  Bm
Parece um universo tridimensional

Onde só tem eu e você

C7M                        Am
    Um mundo todo colorido
                            Em
Sempre viajo no teu sorriso
                                Bm
Até parece uma flor de um livro

Só que muito mais bonito

[Refrão]

[Tab - Dedilhado Refrão]

Parte 1 de 4

   C7M                      
E|------------------------------------------|
B|-5---5-x---5---5-x-5-x--------------------|
G|-4---4-x---4---4-x-4-x--------------------|
D|-5-----x-5-------x-5-x--------------------|
A|-3-----x---3-----x-3-x--------------------|
E|------------------------------------------|

Parte 2 de 4

   Am                      
E|------------------------------------------|
B|-1---1-x---1---1-x-1-x--------------------|
G|-2---2-x---2---2-x-2-x--------------------|
D|-2-----x-2-------x-2-x--------------------|
A|-0-----x---0-----x-0-x--------------------|
E|------------------------------------------|

Parte 3 de 4

   Em                      
E|------------------------------------------|
B|-0---0-x---0---0-x-0-x--------------------|
G|-0---0-x---0---0-x-0-x--------------------|
D|-2-----x-2-------x-2-x--------------------|
A|-------x---------x---x--------------------|
E|-0-----x---0-----x-0-x--------------------|

Parte 4 de 4

   Bm
E|-2---2-x---2---2-x-2-x--------------------|
B|-3---3-x---3---3-x-3-x--------------------|
G|-4-----x-4-------x-4-x--------------------|
D|-------x---------x---x--------------------|
A|-2-----x---2-----x-2-x--------------------|
E|------------------------------------------|

C7M                         Am
    Eu adoro te fazer feliz
                           Em
Com você aqui perto de mim
                                   Bm
Se você não tá, não consigo sorrir

Pois eu preciso de você pra ser feliz

C7M                         Am
    Eu adoro te fazer feliz
                           Em
Com você aqui perto de mim
                                   Bm
Se você não tá, não consigo sorrir

Pois eu preciso de você pra ser feliz

[Segunda Parte]

                    C7M
Tô me sentindo incompleto, eu fico inquieto
               Am
Tá fácil pra você

Mas pra mim não tá dando certo
                 Em
Eu tento me encontrar, em algum lugar
                 Bm
Mas só fica tudo bem se você estiver lá

   C7M               
Componho pra você, com sorte cê vai escutar
   Am
Em todas dimensões eu prometo, vou te levar
  Em
Conheço um universo tridimensional
  Bm
A verdadeira história entre o bem e o mal

   C7M
Eu sei que tá difícil vamos superar
   Am
Só sei que essa história não vai terminar
  Em
Espera na tua casa, já vou te buscar
     Bm
Só espera a quarentena acabar

[Refrão]

C7M                         Am
    Eu adoro te fazer feliz
                           Em
Com você aqui perto de mim
                                   Bm
Se você não tá, não consigo sorrir

Porquê eu dependo de você pra ser feliz

C7M                         Am
    Eu adoro te fazer feliz
                           Em
Com você aqui perto de mim
                                   Bm
Se você não tá, não consigo sorrir

Porquê eu dependo de você pra ser feliz

C7M                         Am
    Eu adoro te fazer feliz
                           Em
Com você aqui perto de mim
                                   Bm
Se você não tá, não consigo sorrir

Porquê eu dependo de você pra ser feliz

[Tab - Dedilhado]

Parte 1 de 4

   C7M                      
E|------------------------------------------|
B|-5---5-x---5---5-x-5-x--------------------|
G|-4---4-x---4---4-x-4-x--------------------|
D|-5-----x-5-------x-5-x--------------------|
A|-3-----x---3-----x-3-x--------------------|
E|------------------------------------------|

Parte 2 de 4

   Am                      
E|------------------------------------------|
B|-1---1-x---1---1-x-1-x--------------------|
G|-2---2-x---2---2-x-2-x--------------------|
D|-2-----x-2-------x-2-x--------------------|
A|-0-----x---0-----x-0-x--------------------|
E|------------------------------------------|

Parte 3 de 4

   Em                      
E|------------------------------------------|
B|-0---0-x---0---0-x-0-x--------------------|
G|-0---0-x---0---0-x-0-x--------------------|
D|-2-----x-2-------x-2-x--------------------|
A|-------x---------x---x--------------------|
E|-0-----x---0-----x-0-x--------------------|

Parte 4 de 4

   Bm
E|-2---2-x---2---2-x-2-x--------------------|
B|-3---3-x---3---3-x-3-x--------------------|
G|-4-----x-4-------x-4-x--------------------|
D|-------x---------x---x--------------------|
A|-2-----x---2-----x-2-x--------------------|
E|------------------------------------------|

C7M      Am         Em             
    Yeieh  La Muerte  Pedro Lunaz
Bm
Tridimensional

[Final] C7M  Am  Em  Bm
00:00 / 00:00
Outros vídeos desta música
Repetir
Outros vídeos desta música
Composição de La Muerte / Pedro Lunaz
Colaboração e revisão:
  • La Muerte
    • ½ Tom
    • A
    • Bb
    • B
    • C
    • Db
    • D
    • Eb
    • E
    • F
    • F#
    • G
    • Ab
  • Adicionar à lista

    0 comentários

    Ver todos os comentários

    Conseguiu tocar?

    0 Tocaram 0 Ainda não

    Grave um vídeo tocando Tridimensional e nos envie!

    Entre para oCifra Club PRO

    Tenha acesso a benefícios exclusivos no App e no Site

    • Chega de anúncios

    • Prioridade de compra em lançamentos

    • Mais recursos no app do Afinador

    • Atendimento Prioritário

    • Descontos nos produtos Cifra Club

    • Ajude a produzir mais conteúdo

    00:00 / 00:00

    Cifra Club Pro

    Aproveite o Cifra Club com benefícios exclusivos e sem anúncios
    Cifra Club Pro
    Aproveite o Cifra Club com benefícios exclusivos e sem anúncios
    OK